Howard Shore - Concerning Hobbits Chords & Tabs

 

Concerning Hobbits Chords & Tabs

Howard Shore Chords & Tabs

Version: 4 Type: Tab

Concerning Hobbits Tab

Concerning hobbits.
By: Howard Shore

|----------------------------------------|
|-----7---10--7---5-7-5------------------|
|-7-9------------------------------------|
|----------------------------------------|
|----------------------------------------|
|----------------------------------------|

|----------------------------------------|
|-------7--10----------------------------|
|-7--7-----------------------------------|
|----------------------------------------|
|----------------------------------------|
|----------------------------------------|

|-7--10--9--9----------------------------|
|-------------10----7---8-7--5------5----|
|--------------------------------7-------|
|----------------------------------------|
|----------------------------------------|
|----------------------------------------|

|-----5----------------------------------|
|-7-------5-7-5---5-----5---------7--10--|
|--------------------7------7--7---------|
|----------------------------------------|
|----------------------------------------|
|----------------------------------------|

[ Tab from: http://www.guitartabs.cc/tabs/h/howard_shore/concerning_hobbits_tab_ver_4.html ]
|--7--5----------------------------------|
|-------7--7--5---5-3--3-----------------|
|----------------------------------------|
|----------------------------------------|
|----------------------------------------|
|----------------------------------------|

|--------14---14---14---17-19-17---------|
|-15--17---------------------------------|
|----------------------------------------|
|----------------------------------------|
|----------------------------------------|
|----------------------------------------|

|--------------5-7-9---9--10--7----5-----|
|-17-15-17----------------------7----5---|
|----------------------------------------|
|----------------------------------------|
|----------------------------------------|
|----------------------------------------|

|----9-----------------------------------|
|-10-------------------------------------|
|----------------------------------------|
|----------------------------------------|
|----------------------------------------|
|----------------------------------------|

|-------14-14--17--14-15-14--------------|
|-15-17---------------------17-15-17-14--|
|----------------------------------------|
|----------------------------------------|
|----------------------------------------|
|----------------------------------------|

|----------------------------------------|
|-14-15-14--12---------------------------|
|----------------------------------------|
|----------------------------------------|
|----------------------------------------|
|----------------------------------------|

That's all i got !
Enjoy.