Howard Shore - Concerning Hobbits Chords & Tabs

 

Concerning Hobbits Chords & Tabs

Howard Shore Chords & Tabs

Version: 3 Type: Tab 0 ratings
1 star 2 stars 3 stars 4 stars 5 stars
comments

Concerning Hobbits Tab

THE FELLOWSHIP OF THE RING INTRO TAB
````````````````````````````````````
* Let it ring

Play with a lot of emotion !!!


   *   *                *   *
E|-------------------------------|
B|-0---1-----0-1-0----1-0--------|
G|-----------------2--------0----|
D|-------------------------------|
A|-------------------------------|
E|-------------------------------|

   *   *                *
E|----------------------------|
B|-0---1-----0-1-0----1-0-----|
G|-----------------2----------|
D|----------------------------|
A|----------------------------|
E|----------------------------|


    *   *                 *
E|--------------------------|
B|--------------------------|
G|--3---4-----3-4-3-1--4--3-|
D|--------------------------|
A|--------------------------|
E|--------------------------|


   *  *  *   *   *                *
E|----------------------------------|
B|----------------------------------|
G|-----------3---4-----3-4-3-1--4-3-|
D|-0--1--3--------------------------|
A|----------------------------------|
E|----------------------------------|

THE RING TAB
````````````
* Let it ring        . Staccato

Pluck hard!!!

        *         .
E|-----------------------|
B|-----------------------|
G|-----------------------|
D|--3-2-3------2--0------|
A|-----------------------|
E|-----------------------|
[ Tab from: http://www.guitartabs.cc/tabs/h/howard_shore/concerning_hobbits_tab_ver_3.html ]
SHIRE MUSIC [FELLOWSHIP]
```````````
* Let it ring


       *  *        *       *               *   *
E|------------------------------------------------|
B|-------------------------1--4--3----------------|
G|-----0--3----0-------0-3---------3--0---0-------|
D|-1-3-----------3-1--------------------3-----3---|
A|------------------------------------------------|
E|------------------------------------------------|

        *  *        *     * *   *    *
E|--------------------------------------|
B|------------------------1-1-----------|
G|------0--3----0-----0-3-----0---------|
D|--1-3-----------3-1-----------3----1--|
A|--------------------------------------|
E|--------------------------------------|


"Three rings for the Elven-kings under the sky,
--Seven for the Dwarf-lords in their halls of stone,
Nine for Mortal Men doomed to die,
--One for the Dark Lord on his dark throne
In the Land of Mordor where the Shadows lie.
--One Ring to rule them all, One Ring to find them,
--One Ring to bring them all & in the darkness bind them
In the Land of Mordor where the Shadows lie."

 ~ Tabbed by Luthien Greanleaf of Eryn Lasgalen  ~ "The wood of Grean leaves"      : )


The spacing between some notes r a bit wonky @ times, so if u figure out the correct 
pls send all comments/corrections to ;

                 pretty_fly88@hotmail.com
Comments