Howard Shore - Concerning Hobbits Chords & Tabs

 

Concerning Hobbits Chords & Tabs

Howard Shore Chords & Tabs

Version: 1 Type: Tab 0 ratings
1 star 2 stars 3 stars 4 stars 5 stars
comments

Concerning Hobbits Tab

Song: Lord Of The Rings, OST : Concerning Hobbits
tabbed by: funeralforafrie

Okii, this is the bit at the start of LOTR: FOTR, in the shire...called
Concerning Hobbits...Its 100% correct, any comments and questions...please!!
[ Tab from: http://www.guitartabs.cc/tabs/h/howard_shore/concerning_hobbits_tab.html ]
|---------------------------------------------------------12---15--14-----|
|----------12----15----12---------------------12--15------------------15--|
|---12-14--------------------14---12--------------------------------------|
|-------------------------------------------------------------------------|
|-------------------------------------------------------------------------|
|-------------------------------------------------------------------------|
 
|-------------------------------------------------------------------------|
|---12--13p12-------------------12----15----12----------------------------|
|-----------------14------12-14--------------------14---12----------------|
|-------------------------------------------------------------------------|
|-------------------------------------------------------------------------|
|-------------------------------------------------------------------------|
 
|------------12-----------------------------------------------------------|
|---12--15---------15--12-------------------------------------------------|
|-----------------------------14----12------------------------------------|
|-------------------------------------------------------------------------|
|-------------------------------------------------------------------------|
|-------------------------------------------------------------------------|
Comments