Housemartins - Freedom Chords & Tabs

 

Freedom Chords & Tabs

Housemartins Chords & Tabs

Version: 1 Type: Bass Tab

Freedom Bass Tab

verse + chorus + solo

g------------------------------|
d------7------4-----2-------0--|
a---------5-------------2------|
e---5------------3-------------|
[ Tab from: http://www.guitartabs.cc/tabs/h/housemartins/freedom_btab.html ]
thats repeated all the way through the peice (i think) until

prechorus

g-------------------------------------------|
d-------------------------------------------|
a-4---4---4-----4---4---4---5--5--5--5--5---|
e-------------------------------------------|