House Of Willow - Amall Retoor Chords & Tabs

 

Amall Retoor Chords & Tabs

House Of Willow Chords & Tabs

Version: 1 Type: Tab 0 ratings
1 star 2 stars 3 stars 4 stars 5 stars
comments

Amall Retoor Tab

tabbed by joel1984_@hotmail.com
hey people. not many people know of this band, i guess 'cos they haven't made it big yet.
really cool song though, tricky to play, but impressive once you've mastered it!!
good luck!

HOUSE OF WILLOW - Amall Retoor 
open Dropped D tuning.

Intro / Verse
D|-----5---------9----------0-----0---5---5-----0--6----5---0-0-7--|
G|-----6----6----8----8-----5---5---0---7---0---x--3----9---9-8-8--|
A|-----3--3------5--5-------7-7-----------------2--5----8---8-7-9--|
D|----------------------------------------------2--5----7----------|
A|---2---------4---------7----------------------0--3----5----------|
D|--0---------2---------3--------------------------3----5----------|
  No one feels it, knows what they mean, they know i feel the pain they mean
  Can't help but say goodnight, the amberous waves roll from my fists

Interlude (?)
D|--------------------------0--------------------------------9--|
G|-------2---6---7-------9--x-----------6------------------8----|
A|-----0---3---4-------8----2---------3------------------7------|
D|---2---------------5------2-------5-----------7r5-------------|
A|-0------------------------0-----3-----------------5/7~~-------|
D|------------------------------3-----------5^7-----------------|
[ Tab from: http://www.guitartabs.cc/tabs/h/house_of_willow/amall_retoor_tab.html ]
Verse
D|-----5---------9----------0-----0---5---5-----0--6----5---0-0-7--|
G|-----6----6----8----8-----5---5---0---7---0---x--3----9---9-8-8--|
A|-----3--3------5--5-------7-7-----------------2--5----8---8-7-9--|
D|----------------------------------------------2--5----7----------|
A|---2---------4---------7----------------------0--3----5----------|
D|--0---------2---------3--------------------------3----5----------|
  I look back when they follow me to the end, it's coming, it's here!!!

Chorus
D|---0-0-0----0-0--0------------------------7-----7---8---9----9-9----9--|
G|---x-x-x----x-x--x-----2--2------------6--------0---0---0--0-----0-9---|
A|---2-2-2----4-4--4-----2--2---------5-----------7---7---7--------------|
D|---2-2-2----4-4--4-----3--3-------3------------------------------------|
A|---0-0-0----0-0--0-----0--0-----3--------------------------------------|
D|-----------------------3--3--------------------------------------------|
  I can feel it coming back again, like a rolling thunder chasing the wind
  every other day just calls me vein

Verse
D|-----5---------9----------0-----0---5---5-----0--6----5---0-0-7--|
G|-----6----6----8----8-----5---5---0---7---0---x--3----9---9-8-8--|
A|-----3--3------5--5-------7-7-----------------2--5----8---8-7-9--|
D|----------------------------------------------2--5----7----------|
A|---2---------4---------7----------------------0--3----5----------|
D|--0---------2---------3--------------------------3----5----------|
  I look back when they follow me to the end, it's coming, it's here!!!

*Chorus twice more*

Outro
D|-----------0-----0----------------------7-----------9------0---9-----9--|
G|-----------x-----x-------------------5-----------7-------9---9-----9----|
A|-----------4-----2----------------5-----------7------------------0------|
D|-----------4-----2-------------3-----------5----------------------------|
A|-----------0-----0----------0-------------------------------------------|
D|----3~~~-----------------3----------------------------------------------|
  next time i look... the look falls through... i'm safe...


long live marty dawson!
 
Comments