Hot Water Music - Sons And Daughters Chords & Tabs

 

Sons And Daughters Chords & Tabs

Hot Water Music Chords & Tabs

Version: 1 Type: Tab 0 ratings
1 star 2 stars 3 stars 4 stars 5 stars
comments

Sons And Daughters Tab

   
-------------------------------------------------------------------------------
			     Sons And Daughters - Hot Water Music
-------------------------------------------------------------------------------
Tabbed by: Nathaniel.
Email: americaskate@msn.com
[ Tab from: http://www.guitartabs.cc/tabs/h/hot_water_music/sons_and_daughters_tab.html ]
Tuning: standard
note: in this song there are many mutes i wont list do to time, just listen carefully to 
song.
this is my first tab so bare with me.
Intro
its played twice as an intro but the first time it ends where i put a N.
e|---------------------------------------------------------------------------|
B|---------------------------------------------------------------------------|
G|9/12---11--11-9--9----9-9-9-9-8-8-9-9-9-6-6-9-9-9-9-8-8-9N9-9-6-6----------|
D|-------x---x--x--x----x-x-x-x-x-x-x-x-x-x-x-x-x-x-x-x-x-xNx-x-x-x----------|
A|-------9---9--7--7----7-7-7-7-6-6-7-7-7-4-4-7-7-7-7-6-6-7N7-7-4-4----------|
E|---------------------------------------------------------------------------|
okay next, listen careful for rythmn.
e|---------------------------------------------------------------------------|
B|---------------------------------------------------------------------------|
G|-6-6-6-6/7\6----okay then keep hitting--6--like 25 times then i think------|
D|-x-x-x-x/x\x----------------------------x---its repeated like X3-----------|
A|-4-4-4-4/5\4----------------------------4----------------------------------|
E|---------------------------------------------------------------------------|
after that you go. repeat the chords not the picking.
e|---------------------------------------------------------------------------|
B|----------------------------------------------------then hit until repeat--|
G|-----6--8--8--8b-8b-8b--8-8-8-8-8-8-7-7-5-5-5-5-5-8-8---------6------------|
D|-6/8--------------------x-x-x-x-x-x-x-x-x-x-x-x-x-x-x---------x------------|
A|------------------------6-6-6-6-6-6-5-5-3-3-3-3-3-6-6---------4------------|
E|---------------------------------------------------------------------------|
                then play each of these chords 4 times(repeat a few times)
e|---------------------------------------------------------------------------|
B|---------------------------------------------------------------------------|
G|---------------------------------------------------------------------------|
D|--4---------2---------7------------7---------------------------------------|
A|--4---------2---------7------------7---------------------------------------|
E|--2---------0---------5------------5---------------------------------------|
  play each chord twice  then go on and change the rythmn to(repeat also)
e|---------------------------------------------------------------------------|
B|---------------------------------------------------------------------------|
G|---------------------------------------------------------------------------|
D|-xx-4-4----xx-2-2-------xx-7-7----xx-7-7-----------------------------------|
A|-xx-4-4----xx-2-2-------xx-7-7----xx-7-7-----------------------------------|
E|-xx-2-2----xx-0-0-------xx-5-5----xx-5-5-----------------------------------|

alright thats about it, many things a repeated again throughout the songlike the intro 
it changes rythmn a bit. Everything is in here. There are two guitars and this is just 
of them. Have fun.
Nathaniel.

| b  bend
| /  slide up
| \  slide down
| h  hammer-on
| p  pull-off
| ~  vibrato
| +  harmonic
| x  Mute note
===============================================================================
Comments