Hot Water Music - Remedy Chords & Tabs

 

Remedy Chords & Tabs

Hot Water Music Chords & Tabs

Version: 1 Type: Tab 0 ratings
1 star 2 stars 3 stars 4 stars 5 stars
comments

Remedy Tab

   
-------------------------------------------------------------------------------
			     REMEDY - Hot Water Music
-------------------------------------------------------------------------------
Tabbed by:don't you wish
Email:bob@hotmail.com

Tuning: Standard

e|----------------------------------------------------------------------------|
B|----------------------------------------------------------------------------|
G|--4/6-6-6-------------------------------------------------------------------|
D|--4/6-6-6-2-4-4-2-4-4-6-2-2-------------------------------------------------|
A|--2/4-4-4-2-4-4-2-4-4-6-2-2-------------------------------------------------|
E|----------0-2-2-0-2-2-4-0-0-------------------------------------------------|

Repeat this throughout the song and you will be set.  Listen to it for the timing and rests.
[ Tab from: http://www.guitartabs.cc/tabs/h/hot_water_music/remedy_tab.html ]
Lyrics:
I need a remedy, of diesel and dust
Something I can taste with a fix I can trust
Another high, more potent than lust
Eating and repeating like the workings of rust and time

Woke to the sound and the rhythym of rain
Dancing down on the window pane
Comatose, eyes half closed, arms wrapped up with the wounds all sewn
I froze from head to toe, clenched the jaw
Felt my body roll over slow
I must live to know that healing takes some time

So no, no regrets, looking back on sinking ships
So I'll strip the gauze from a rational self-analysis
Up, down, turn it around, count the stars
Count the blessings loud, so loud
I must live to know that time alone

No regrets, falling fits
I'll strip the gauze and bleed it
No regrets, falling fits
I'll strip the gauze and bleed it
X3

| /  slide up
| \  slide down
| h  hammer-on
| p  pull-off
| ~  vibrato
| +  harmonic
| x  Mute note
===============================================================================
Comments