Hot Water Music - Its All Related Chords & Tabs

 

Its All Related Chords & Tabs

Hot Water Music Chords & Tabs

Version: 1 Type: Tab 0 ratings
1 star 2 stars 3 stars 4 stars 5 stars
comments

Its All Related Tab

   
It’s All Related - Hot Water Music 

By: bt12483@aol.com 

/=slide

Intro (some sort of delay effect here, not sure?!?) 
e|------------------------------------------------------------------| 
B|5-5-5/7-7-7-7/3-3-3-3-3-5-3-5-[x3]/5-5-5/7-7-7-7/8-8-8-8/10-10-10-| 
G|------------------------------------------------------------------| 
D|------------------------------------------------------------------| 
A|------------------------------------------------------------------| 
E|------------------------------------------------------------------| 

Verse 1
e|-------------------------------------------------------------| 
B|5-5-5/7-7-7-7/3-3-3-3-3-5-3-5-[x3]/5-5-5/3-3-3-0-1-1-1-1-1-0-| 
G|-------------------------------------------------------------| 
D|-------------------------------------------------------------| 
A|-------------------------------------------------------------| 
E|-------------------------------------------------------------|
[ Tab from: http://www.guitartabs.cc/tabs/h/hot_water_music/its_all_related_tab.html ]
Verse 2 (same as intro)
e|------------------------------------------------------------------| 
B|5-5-5/7-7-7-7/3-3-3-3-3-5-3-5-[x3]/5-5-5/7-7-7-7/8-8-8-8/10-10-10-| 
G|------------------------------------------------------------------| 
D|------------------------------------------------------------------| 
A|------------------------------------------------------------------| 
E|------------------------------------------------------------------|

Pre Verse 
e|---------------| 
B|---------------| 
G|-4-4-----------| 
D|-4-4-2-2-5-5-5-| 
A|-2-2-2-2-5-5-5-| 
E|-----0-0-3-3-3-| 

Pre Chorus
e|-------------------------------| 
B|-------------------------------| 
G|-5-5-5/4-4-4/------------------| 
D|-5-5-5/4-4-4/2/5-5-5-5/7-7-7-7-| 
A|-3-3-3/2-2-2/2/5-5-5-5/7-7-7-7-| 
E|-------------0/3-3-3-3/5-5-5-5-| 

Chorus
e|-------------------------------| 
B|-------------------------------|
G|-5--------------7--------------| 
D|-x-------2------x------7-------| 
A|-3-[x16]-2-[x8]-5-[x8]-7-[x32]-| 
E|---------0-------------5-------| 

Lead Chorus (when he says “Ready to See”)
e|----------| 
B|-10/5/3/5-|
G|----------| 
D|----------| 
A|----------| 
E|----------|

End
e|----------| 
B|----------|
G|----------| 
D|--7-------| 
A|--7-[x32]-| 
E|--5-------|

Intro     [x1]
Verse 1   [x1]
Verse 2   [x1]
Pre Verse [x2]
Verse 1   [x1]
Pre Chorus[x4]
Chorus    [x2] (with lead chorus part)
Pre Verse [x2]
Verse 2   [x1]
Pre Chorus[x4]
Chorus    [x3] (with lead chorus part)
End       [x1]

This is close, but not perfect.  I couldn’t figure out some parts, and some
other stuff might be a little off.  But it’s decent.
Comments