Hot Water Music - Alachua Chords & Tabs

 

Alachua Chords & Tabs

Hot Water Music Chords & Tabs

Version: 1 Type: Tab 0 ratings
1 star 2 stars 3 stars 4 stars 5 stars
comments

Alachua Tab

   
Alachua
Hot Water Music
Tabbed by dantansy

part-a
|-----------------------|
|-----------------------|
|--9---9---6/6--7-------|
|--7---9---4/6--7-------|
|-----------------------|
|-----------------------|

part-b
|-----------------------------------------|
|--2--------------------------------------|
|--2----1----------7--67--6--7-----------|
|--2----2----4-----7--67--6--7-----------|
|-------2----4-----5--45--4--5-----------|
|------------2----------------------------|

part-c
|-------------------------------|
|--------2----------------------|
|--------2----2----4--6--7------|
|--4-----2----2----4--6--7------|
|--4----------1----2--4--5------|
|--2----------------------------|

part-d
|-------------------|
|-------------------|
|---------4-2-2-----|
|--4-4-4------------|
|-------------------|
|-------------------|
[ Tab from: http://www.guitartabs.cc/tabs/h/hot_water_music/alachua_tab.html ]
part-e
|-------------------------------|
|--5-5-------X6-----------------|
|-------4-2------7-7--6---------|
|----------------7-7--6X3------|
|----------------5-5--4---------|
|-------------------------------|

part-f
|--------------------------------------------------------------------------|
|--------------------------------------------------------------------------|
|---------4--2--2--------4--2-2----2----4--2-2-----2----4--2--2------------|
|--4-4-4----------4-4-4---------4----4-----------4----4--------------------|
|--------------------------------------------------------------------------|
|--------------------------------------------------------------------------|


Order:
Part-a X1
Part-b X2
Part-c X2
Part-d X8
Part-e X6 (as indicated)
Part-b X2
Part-c X2
Part-f X2
Part-e X6 (as indicated)
Part-b X 4 All the way to the end. Except the d/#c isn't played until the last
time Just play d to keep it going. I suck at writing tabs. I know the chords
are right but I written them according to the strumming pattern because I
am lazy. Just listen to the CD and you'll be able to figure it out. I
promise. I apologize for the way I did this. I'm not retarded. I'm
just gifted in different ways.

~dantansy
Comments