Hot Rod Circuit - The Night They Blew Up The Moon Chords & Tabs

 

The Night They Blew Up The Moon Chords & Tabs

Hot Rod Circuit Chords & Tabs

Version: 1 Type: Chords 0 ratings
1 star 2 stars 3 stars 4 stars 5 stars
comments

The Night They Blew Up The Moon Chords

Artist: Hot Rod Circuit
Song: The Night They Blew Up The Moon
Tabbed by: Madde


I've looked everywhere for a tab for this. And since i couldn't find one, i 
decided to write my own. Now it's not exact, but i'm sure you can find out for yourself
what's missing.

I classified it as CRD because i don't have the riffs written down, so i'm sorry if that's
what you've been looking for.

Standard Drop D tuning: DADGBE


Verse:
e-------------------
B-------------------
G---4---------------
D---4--5--4--0?-----
A---2--5--4--0?-----
D---x--5--4--0?-----


Chorus:
e-------------------
B-------------------
G--7---7------------
D--7---7------------
A--5---4------------
D--0---4------------
 
[ Tab from: http://www.guitartabs.cc/tabs/h/hot_rod_circuit/the_night_they_blew_up_the_moon_crd.html ]
Bridge: (i think this is the hardest part)
e-----------------------------------------------------------------------
B-----------------------------------------------------------------------
G--7---7----4-----7---7------------------44--22----------------------7--
D--7---7----4-----7---7------------------44--22--5-------------------7--
A--5---4----2-----4---5------------------22--00--5-------------------5--
D--0---x----x-----x---0------------------xx--xx--5-------------------0--
 take.place.next.ship.outerspace.....you know......that you lost it.



That's it. The verse and chorus repeat once then it goes into the bridge. I think i made
it clear that you end on that D. It sounds good to me, don't count on the lyrics to match
up with the strum pattern... just guess on it. I did.

comments: lfc101kurt56 (AIM)
                 lfc101kurt56@yahoo.com
Comments