Hot Hot Heat - Shame On You Chords & Tabs

 

Shame On You Chords & Tabs

Hot Hot Heat Chords & Tabs

Version: 1 Type: Bass Tab 0 ratings
1 star 2 stars 3 stars 4 stars 5 stars
comments

Shame On You Bass Tab

EADG

\"Shame on you...\"

G|----------------------------|----------------------------|
D|----------------------------|----------------------------|
A|----5--5--------5-----------|----------------------------|
E|---------------------6--6---|----5--5--------5----6--6---|
      ^     ^     ^     ^          ^     ^     ^     ^      

\"Now who will...\"

G|----------------------------|----------------------------|
D|----------------------------|----------------------------|
A|----------------------------|----------------4--4--------|
E|----3--3--------3----3--3---|----6--6--------------------|
      ^     ^     ^     ^          ^     ^     ^     ^      

\"Shame on you...\"

G|----------------------------|----------------------------|
D|----------------------------|----------------------------|
A|----5--5--------5-----------|----------------------------|
E|---------------------6--6---|----5--5--------5----6--6---|
      ^     ^     ^     ^          ^     ^     ^     ^      

\"How can you...\"


G|----------------------------|----------------------------|
D|----------------------------|----------------------------|
A|----------------------------|----------------4--4--------|
E|----3--3--------3----3--3---|----6--6--------------------|
      ^     ^     ^     ^          ^     ^     ^     ^      





PRE-VERSE 0:18

G|----------------------------|----------------------------|
D|----------------------------|----------------------------|
A|----5--------5--------------|----------------8--8--7-----|
E|--------------6-5--5--6--3--|-------------5-6------------|
      ^     ^     ^     ^          ^     ^     ^     ^      





VERSE 0:22

\"Running with scissors...\"

G|----------------------------|----------------------------|
D|---------------------8--8---|----7--7--7-----7----8--8---|
A|----5--8--5-----5-----------|----------------------------|
E|----------------------------|----------------------------|
      ^     ^     ^     ^          ^     ^     ^     ^      

\"I didn\'t mean to...\"

G|----------7--------7--------|----------------6-----6-----|
D|----5--8--------5-----8-----|----8--8--8--------7--------|
A|----------------------------|----------------------------|
E|----------------------------|----------------------------|
      ^     ^     ^     ^          ^     ^     ^     ^      

\"In the wake of my mistake...\"

G|----------------------------|----------------------------|
D|---------------------8--8---|----7--7--7-----7----8--8---|
A|----5--8--5-----5-----------|----------------------------|
E|----------------------------|----------------------------|
      ^     ^     ^     ^          ^     ^     ^     ^      

\"The timing couldn\'t...\"

G|----------7--------7--------|----------------6-----6-----|
D|----5--8--------5-----8-----|----8--8--8--------7--------|
A|----------------------------|----------------------------|
E|----------------------------|----------------------------|
      ^     ^     ^     ^          ^     ^     ^     ^      





PRE-CHORUS 0:39

G|----------------------------|----------------------------|
D|----------------------------|--------------5/7-----------|
A|----------------4-----------|----------------------------|
E|----6-----------------------|----6-----------------------|
      ^     ^     ^     ^          ^     ^     ^     ^      





CHORUS 0:43

\"Shame on you...\"

G|----------------------------|----------------------------|
D|----------------------------|----------------------------|
A|----5--5--------5-----------|----------------------------|
E|---------------------6--6---|----5--5--------5----6--6---|
      ^     ^     ^     ^          ^     ^     ^     ^      

\"Now who will...\"

G|----------------------------|----------------------------|
D|----------------------------|----------------------------|
A|----------------------------|----------------4--4--------|
E|----3--3--------3----3--3---|----6--6--------------------|
      ^     ^     ^     ^          ^     ^     ^     ^      

\"Shame on you...\"

G|----------------------------|----------------------------|
D|----------------------------|----------------------------|
A|----5--5--------5-----------|----------------------------|
E|---------------------6--6---|----5--5--------5----6--6---|
      ^     ^     ^     ^          ^     ^     ^     ^      

\"How can you...\"

G|----------------------------|----------------------------|
D|----------------------------|----------------------------|
A|----------------------------|----------------4--4--------|
E|----3--3--------3----3--3---|----6--6--------------------|
      ^     ^     ^     ^          ^     ^     ^     ^      





VERSE 1:00

\"Traveled the world...\"

G|----------------------------|----------------------------|
D|---------------------8--8---|----7--7--7-----7----8--8---|
A|----5--8--5-----5-----------|----------------------------|
E|----------------------------|----------------------------|
      ^     ^     ^     ^          ^     ^     ^     ^      

\"It turned my rainclouds...\"

G|----------7--------7--------|----------------6-----6-----|
D|----5--8--------5-----8-----|----8--8--8--------7--------|
A|----------------------------|----------------------------|
E|----------------------------|----------------------------|
      ^     ^     ^     ^          ^     ^     ^     ^      

\"As days apart turned...\"

G|----------------------------|----------------------------|
D|---------------------8--8---|----7--7--7-----7----8--8---|
A|----5--8--5-----5-----------|----------------------------|
E|----------------------------|----------------------------|
      ^     ^     ^     ^          ^     ^     ^     ^      

\"While I was playing...\"

G|----------7--------7--------|----------------6-----6-----|
D|----5--8--------5-----8-----|----8--8--8--------7--------|
A|----------------------------|----------------------------|
E|----------------------------|----------------------------|
      ^     ^     ^     ^          ^     ^     ^     ^      





PRE-CHORUS 1:16
[ Tab from: http://www.guitartabs.cc/tabs/h/hot_hot_heat/shame_on_you_btab.html ]
G|----------------------------|----------------------------|
D|----------------------------|--------------5/7-----------|
A|----------------4-----------|----------------------------|
E|----6-----------------------|----6-----------------------|
      ^     ^     ^     ^          ^     ^     ^     ^      





CHORUS 1:21

\"Shame on you...\"

G|----------------------------|----------------------------|
D|----------------------------|----------------------------|
A|----5--5--------5-----------|----------------------------|
E|---------------------6--6---|----5--5--------5----6--6---|
      ^     ^     ^     ^          ^     ^     ^     ^      

\"Now who will...\"

G|----------------------------|----------------------------|
D|----------------------------|----------------------------|
A|----------------------------|----------------4--4--------|
E|----3--3--------3----3--3---|----6--6--------------------|
      ^     ^     ^     ^          ^     ^     ^     ^      

\"Shame on you...\"

G|----------------------------|----------------------------|
D|----------------------------|----------------------------|
A|----5--5--------5-----------|----------------------------|
E|---------------------6--6---|----5--5--------5----6--6---|
      ^     ^     ^     ^          ^     ^     ^     ^      

\"How can you...\"

G|----------------------------|----------------------------|
D|----------------------------|----------------------------|
A|----------------------------|----------------4--4--------|
E|----3--3--------3----3--3---|----6--6--------------------|
      ^     ^     ^     ^          ^     ^     ^     ^      





BRIDGE 1:38 (no vocals)

G|----------------------------|----------------------------|
D|----------------------------|----------------------------|
A|----5--------5--------------|----------------8--8--7-----|
E|--------------6-5--5--6--3--|-------------5-6------------|
      ^     ^     ^     ^          ^     ^     ^     ^      

G|----------------------------|----------------------------|
D|----------------------------|----------------5--5--------|
A|----5--------5--------------|----------------------8--7--|
E|--------------6-5--5--6--3--|-------------5-6------------|
      ^     ^     ^     ^          ^     ^     ^     ^      

G|----------------------------|----------------------------|
D|----------------------------|----------------------------|
A|----5--------5--------------|----------------8--8--7-----|
E|--------------6-5--5--6--3--|-------------5-6------------|
      ^     ^     ^     ^          ^     ^     ^     ^      

G|----------------------------|----------------------------|
D|----------------------------|----------------5--5--5--5--|
A|----5--------5--------------|----------------------------|
E|--------------6-5--5--6--3--|-------------5-6------------|
      ^     ^     ^     ^          ^     ^     ^     ^      

G|----------------------------|----------------------------|
D|----7--7--7--7--8--8--8--8--|----10-10-10-10-------------|
A|----------------------------|----------------------------|
E|----------------------------|----------------10----------|
      ^     ^     ^     ^          ^     ^     ^     ^      

(Bass cuts out and begins again at the next chorus)      





CHORUS 2:06

\"Shame on you...\"

G|----------------------------|----------------------------|
D|----------------------------|----------------------------|
A|----5--5--------5-----------|----------------------------|
E|---------------------6--6---|----5--5--------5----6--6---|
      ^     ^     ^     ^          ^     ^     ^     ^      

\"Now who will...\"

G|----------------------------|----------------------------|
D|----------------------------|----------------------------|
A|----------------------------|----------------4--4--------|
E|----3--3--------3----3--3---|----6--6--------------------|
      ^     ^     ^     ^          ^     ^     ^     ^      

\"Shame on you...\"

G|----------------------------|----------------------------|
D|----------------------------|----------------------------|
A|----5--5--------5-----------|----------------------------|
E|---------------------6--6---|----5--5--------5----6--6---|
      ^     ^     ^     ^          ^     ^     ^     ^      

\"How can you...\"

G|----------------------------|----------------------------|
D|----------------------------|----------------------------|
A|----------------------------|----------------4--4--------|
E|----3--3--------3----3--3---|----6--6--------------------|
      ^     ^     ^     ^          ^     ^     ^     ^      

\"Running with scissors...\"

G|----------------------------|----------------------------|
D|----------------------------|----------------------------|
A|----5--5--------5-----------|----------------------------|
E|---------------------6--6---|----5--5--------5----6--6---|
      ^     ^     ^     ^          ^     ^     ^     ^      

\"I didn\'t mean to...\"

G|----------------------------|----------------------------|
D|----------------------------|----------------------------|
A|----------------------------|----------------4--4--------|
E|----3--3--------3----3--3---|----6--6--------------------|
      ^     ^     ^     ^          ^     ^     ^     ^      

\"In the wake of my mistake...\"

G|----------------------------|----------------------------|
D|----------------------------|----------------------------|
A|----5--5--------5-----------|----------------------------|
E|---------------------6--6---|----5--5--------5----6--6---|
      ^     ^     ^     ^          ^     ^     ^     ^      

\"The timing couldn\'t...\"

G|----------------------------|----------------------------|
D|----------------------------|----------------------------|
A|----------------------------|----------------4--4--------|
E|----3--3--------3----3--3---|----6--6--------------------|
      ^     ^     ^     ^          ^     ^     ^     ^      





OUTRO 2:39

G|----------------------------|----------------------------|
D|----------------------------|----------------------------|
A|----5--------5--------------|----------------8--8--7-----|
E|--------------6-5--5--6--3--|-------------5-6------------|
Comments