Hot Hot Heat - Save Us Sos Chords & Tabs

 

Save Us Sos Chords & Tabs

Hot Hot Heat Chords & Tabs

Version: 1 Type: Bass Tab 1 rating
1 star 2 stars 3 stars 4 stars 5 stars
comments

Save Us Sos Bass Tab

#----------------------------------PLEASE NOTE---------------------------------#
#This file is the author's own work and represents their interpretation of the #
#song. You may only use this file for private study, scholarship, or research. #
#------------------------------------------------------------------------------##

SONG: Save Us S.O.S.
ARTIST: Hot Hot Heat
Album: Makeup The Breakdown

Submission by Paulie Jay

Bass tab - standard tuning.



Intro                   .= accent
"Save us s.o.s..."
G-----------------|-----------------|----------------|-----------------|
D-----------------|-----------------|----------------|-----------------|
A-0-0-0-0-0-0-0-0-|-0-0-0-0-0-0-0---|----------------|-----------------|
E-----------------|---------------0-|-2-2----------0-|-2-2-------------|
  .     .     .     .     .     .

G-----------------|-----------------|----------------|-----------------|
D-----------------|-----------------|----------------|-----------------|
A-0-0-0-0-0-0-0-0-|-0-0-0-0-0-0-0---|----------------|-----------------|
E-----------------|---------------0-|-2-2----------0-|-2-2-------------|
  .     .     .     .     .     .

G-----------------|-----------------|----------------|-----------------|
D-----------------|-----------------|----------------|-----------------|
A-0-0-0-0-0-0-0-0-|-0-0-0-0-0-0-0---|----------------|-----------------|
E-----------------|---------------0-|-2-2----------0-|-1-1-------------|

G-----------------|-----------------|
D-0---------------|-----------------|
A-----------------|-----------------|
E-----------------|-----------------|
     let ring
  

VERSE 1

Silent for first half, then

G-----------------|------------------|---------------|------------------|
D-----------------|------------------|---------------|------------------|
A-----------------|------------------|---------------|------------------|
E---------------3-|-5-5--------------|-------------3-|-2-2--------------|

G-----------------|------------------|---------------|------------------|
D-----------------|------------------|---------------|------------------|
A-----------------|------------------|---------------|------------------|
E---------------3-|-5-5--------------|-------------3-|-2-2------------2-|

G-----------------|------------------|-----------------|-----------------|
D-----------------|------------------|-----------------|-----------------|
A-----------------|-2-------4--------|-----------------|-----------------|
E-1-1-------------|------------------|-0-0-0-0-0-0-0-0-|-0-0-0-0-0-0-0-0-|

G-----------------|-----------------|-----------------|-----------------|
D-----------------|-----------------|-----------------|-----------------|
A-----------------|-----------------|-----------------|-----------------|
E-2-2-2-2-2-2-2-2-|-2-2-2-2-2-2-2-2-|-0-0-0-0-0-0-0-0-|-0-0-0-0-0-0-0-0-|

G-----------------|-----------------|
D-4-4-4-4-4-4-4-4-|-4-------4---4---|
A-----------------|-----------------|
E-----------------|-----------------|



CHORUS

"Save us s.o.s..."
G-----------------|-----------------|-----------------|------------------|
D-----------------|-----------------|-----------------|------------------|
A-0-0-4-0-0-5-0-0-|-4-0-0-4-0-0-7---|-----------------|------------------|
E-----------------|---------------0-|-2-2-----------0-|-2-2--------------|

G-----------------|-----------------|-----------------|------------------|
D-----------------|-----------------|-----------------|------------------|
A-0-0-4-0-0-5-0-0-|-4-0-0-4-0-0-7---|-----------------|------------------|
E-----------------|---------------0-|-2-2-----------0-|-2-2--------------|

G-----------------|-----------------|-----------------|------------------|
D-----------------|-----------------|-----------------|------------------|
A-0-0-4-0-0-5-0-0-|-4-0-0-4-0-0-7---|-----------------|------------------|
E-----------------|---------------0-|-2-2-----------0-|-1-1------------0-|

G-----------------|
D-----------------|
A-----------------|
E-2-2-----------3-|



VERSE 2
"No, no, no..."
G------------------|---------------|------------------|-----------------|
D------------------|---------------|------------------|-----------------|
A------------------|---------------|------------------|-----------------|
E-5-5--------------|-------------3-|-2-2--------------|---------------3-|

G------------------|---------------|------------------|-----------------|
D------------------|---------------|------------------|-----------------|
A------------------|---------------|------------------|-----------------|
E-5-5--------------|-------------3-|-2-2--------------|---------------3-|

G------------------|---------------|------------------|-----------------|
D------------------|---------------|------------------|-----------------|
A------------------|---------------|------------------|-----------------|
E-5-5--------------|-------------3-|-2-2------------2-|-1-1-----------3-|
[ Tab from: http://www.guitartabs.cc/tabs/h/hot_hot_heat/save_us_sos_btab.html ]
G------------------|---------------|------------------|-----------------|
D------------------|---------------|------------------|--------------2--|
A------------------|---------------|------------------|-----------------|
E-5-5--------------|-------------3-|-2-2------------2-|-1-1-------------|


G-----------------|-----------------|-----------------|-----------------|
D-----------------|-----------------|-----------------|-----------------|
A-----------------|-----------------|-----------------|-----------------|
E-0-0-0-0-0-0-0-0-|-0-0-0-0-0-0-0-0-|-2-2-2-2-2-2-2-2-|-2-2-2-2-2-2-2-2-|

G-----------------|-----------------|-----------------|------------------|
D-----------------|-----------------|-4-4-4-4-4-4-4-4-|-4--4--4--4--4--4-|
A-----------------|-----------------|-----------------|------------------|
E-0-0-0-0-0-0-0-0-|-0-0-0-0-0-0-0-0-|-----------------|------------------|
                                                          triplet feel


CHORUS 2

G-----------------|-----------------|-----------------|------------------|
D-----------------|-----------------|-----------------|------------------|
A-0-0-4-0-0-5-0-0-|-4-0-0-4-0-0-7---|-----------------|------------------|
E-----------------|---------------0-|-2-2-----------0-|-2-2--------------|

G-----------------|-----------------|-----------------|------------------|
D-----------------|-----------------|-----------------|------------------|
A-0-0-4-0-0-5-0-0-|-4-0-0-4-0-0-7---|-----------------|------------------|
E-----------------|---------------0-|-2-2-----------0-|-2-2--------------|

G-----------------|-----------------|-----------------|------------------|
D-----------------|-----------------|-4---4---4---4---|-4---4---4H6-4----|
A-0-0-4-0-0-5-0-0-|-4-0-0-4-0-0-7-0-|-----------------|------------------|
E-----------------|-----------------|-----------------|------------------|
                                       play staccato

G-----------------|-----------------|-----------------|------------------|
D-3---3---3---3---|-3---3---3---3---|-----------------|------------------|
A-----------------|-----------------|-----------------|------------------|
E-----------------|-----------------|-0---------------|------------------|
                                          let ring


Middle part

G-----------------|----------------|-----------------|-----------------|
D-----------------|----------------|-----------------|-----------------|
A-0-0-0-0-0-0-0-0-|-0-0-0-0-0-0-0-0|-0-0-0-0-0-0-0-0-|-0-0-0-0-0-0-0-0-|
E-----------------|----------------|-----------------|-----------------|

G-----------------|----------------|-----------------|-----------------|
D-----------------|----------------|-----------------|-----------------|
A-0-0-0-0-0-0-0-0-|-0-0-0-0-0-0-0-0|-----------------|-----------------|
E-----------------|----------------|-0-0-0-0-0-0-0-0-|-3-3-3-3-3-3-3-3-|

G-----------------|----------------|-----------------|-----------------|
D-----------------|----------------|-----------------|-----------------|
A-0-0-0-0-0-0-0-0-|-0-0-0-0-0-0-0-0|-0-0-0-0-0-0-0-0-|-0-0-0-0-0-0-0-0-|
E-----------------|----------------|-----------------|-----------------|

G-----------------|----------------|-----------------|-----------------|
D-----------------|----------------|-----------------|-----------------|
A-0-0-0-0-0-0-0-0-|-0-0-0-0-0-0-0-0|-----------------|-----------------|
E-----------------|----------------|-0-0-0-0-0-0-0-0-|-3-3-3-3-3-3-3-3-|

G-----------------|----------------|
D-----------------|----------------|
A-0---------------|----------------|
E-----------------|----------------|
  let ring



OUTRO

G-----------------|-----------------|-----------------|-----------------|
D-----------------|-----------------|-----------------|-----------------|
A-0-0-0-0-0-0-0-0-|-0-0-0-0-0-0-0-0-|-----0-0-0-0-0-0-|-0-0-0-0-0-0-0-0-|
E-----------------|-----------------|-----------------|-----------------|

G-----------------|-----------------|-----------------|-----------------|
D-----------------|-----------------|-----------------|-----------------|
A-----0-0-0-0-0-0-|-0-0-0-0-0-0-0-0-|-----0-0-0-0-0-0-|-0-0-0-0-0-0-0-0-|
E-----------------|-----------------|-----------------|-----------------|

G-----------------|------------------|-----------------|----------------|
D-4---4---4---4---|-4---4---4H6-4----|-3---3---3---3---|-3---3---3H5-3--|
A-----------------|------------------|-----------------|----------------|
E-----------------|------------------|-----------------|----------------|
  play smoothly

G-----------------|-----------------|-----------------|-----------------|
D-----------------|-----------------|-----------------|-----------------|
A-----0-0-0-0-0-0-|-0-0-0-0-0-0-0-0-|-----0-0-0-0-0-0-|-0-0-0-0-0-0-0-0-|
E-----------------|-----------------|-----------------|-----------------|

G-----------------|------------------|-----------------|
D-4---4---4---4---|-4---4---4H6-4----|-3-3-------------|
A-----------------|------------------|-----------------|
E-----------------|------------------|-----------------|
  play smoothly



Performance tips - in the outro, play the high F# and F "legato" - this means
let the notes run smoothly into each other.
Comments