Hot Hot Heat - Oh Goddammit Chords & Tabs

 

Oh Goddammit Chords & Tabs

Hot Hot Heat Chords & Tabs

Version: 2 Type: Bass Tab 0 ratings
1 star 2 stars 3 stars 4 stars 5 stars
comments

Oh Goddammit Bass Tab

This is how I play it, just listen to the song to have the rythm right ...

Intro: wait until he stops singing
G|--------------------------------|-------------------------------|
D|-----------9-----11--11--9------|----------9-----11--11--13-----|
A|---------9-----9----------------|--------9-----9----------------|
E|-7---7--------------------------|-7---7-------------------------|

G|--------------------------------|-------------------------------|
D|--------------------------------|------------------------9------|
A|9---9-----------9---11--9-------|9---9-----------9---11---------|
E|--------------9-----------------|--------------9----------------|

Verse: same as in intro

Chorus:
G|--------------------------------|--------------------------------|
D|--------------------------------|--------------------------------|
A|--------------------------------|7-7-7-7-7-7-6-7-9---------------|
E|0-0-0-0-0-0-0-0-2-2-2-2-2-2-2-2-|--------------------------------|

G|--------------------------------|--------------------------------|
D|----------9-----11--11--9-------|----------9-----11--11--13------|
A|--------9-----9-----------------|--------9-----9-----------------|
E|7---7---------------------------|7---7---------------------------|


Bridge:
G|--------------------------------|--------------------------------|
D|--------------------------------|--------------------------------|
A|--------------------------------|--------------------------------|
E|7-----7-6-----6-4-----4-2-----2-|0---------0---0-2---------2---2-|
play it two times

Verse: same as in intro

Chorus:
G|--------------------------------|--------------------------------|
D|--------------------------------|--------------------------------|
A|--------------------------------|--------------------------------|
E|0-0-0-0-0-0-0-0-2-2-2-2-2-2-2-2-|0-0-0-0-0-0-0-0-----2-----------|

[ Tab from: http://www.guitartabs.cc/tabs/h/hot_hot_heat/oh_goddammit_btab_ver_2.html ]
G|--------------------------------|
D|--------------------------------|
A|--------------------------------|
E|0-0-0-0-0-0-0-0-2---------------|


Bridge:
G|--------------------------------|--------------------------------|
D|--------------------------------|--------------------------------|
A|--------------------------------|--------------------------------|
E|7-----7-6-----6-4-----4-2-----2-|0---------0---0-2---------2---2-|


G|--------------------------------|--------------------------------|
D|--------------------------------|--------------------------------|
A|--------------------------------|--------------------------------|
E|7-----7-6-----6-4-----4-2-----2-|0---------0---0-2---------2---2-|


Last verse:
G|--------------------------------|--------------------------------|
D|--------------------------------|--------------------------------|
A|--------------------------------|--------------------------------|
E|0---------0---0-2---------2---2-|4-4-4-4-4-4-4-4/1717171717171717|
						      
G|--------------------------------|--------------------------------|
D|--------------------------------|--------------------------------|
A|7-----7-6-----6-4-----4-2-----2-|0---------0---0-2---------2---2-|
E|--------------------------------|--------------------------------|


G|--------------------------------|--------------------------------|
D|--------------------------------|--------------------------------|
A|7-----7-6-----6-4-----4-2-----2-|0---------0---0-2---------2---2-|
E|--------------------------------|--------------------------------|


G|--------------------------------|--------------------------------|
D|--------------------------------|--------------------------------|
A|7-----7-6-----6-4-----4-2-----2-|0---------0---0-2---------2---2-|
E|--------------------------------|--------------------------------|


G|--------------------------------|--------------------------------|-|
D|--------------------------------|--------------------------------|-|
A|7-----7-6-----6-4-----4-2-----2-|4---------4---4-2---------2---2-|7|
E|--------------------------------|--------------------------------|-|

Peace and have fun!!
Comments