Hot Hot Heat - In Cairo Chords & Tabs

 

In Cairo Chords & Tabs

Hot Hot Heat Chords & Tabs

Version: 1 Type: Bass Tab 1 rating
1 star 2 stars 3 stars 4 stars 5 stars
comments

In Cairo Bass Tab

   
#----------------------------------PLEASE NOTE---------------------------------#
#This file is the author's own work and represents their interpretation of the #
#song. You may only use this file for private study, scholarship, or research. #
#------------------------------------------------------------------------------##


SONG: In Cairo
ARTIST: Hot Hot Heat
Album: Make Up The Breakdown

Submission by Paulie Jay




INTRO - Silent for beginning, then
G---------------|-----------------|-----------------|-----------------|
D-------------6-|---------7-6---6-|---------7-6-----|-----------------|
A-7-----9-7-9---|-------------9---|-------------9---|-----------------|
E---------------|-----------------|---------------0-|-----------------|
                                                  let ring.............
G---------------|-----------------|-----------------|-----------------|
D-------------6-|---------7-6---6-|---------7-6-----|-----------------|
A-7-----9-7-9---|-------------9---|-------------9---|-----------------|
E---------------|-----------------|---------------0-|-----------------|
                                                  let ring.............



VERSE 1
G---------------|-----------------|-----------------|-----------------|
D-------------6-|---------7-6---6-|---------7-6-----|-----------------|
A-7-----9-7-9---|-------------9---|-------------9---|-----------------|
E---------------|-----------------|---------------0-|-----------------|
                                                  let ring.............
G---------------|-----------------|-----------------|-----------------|------------|
D-------------6-|---------7-6---6-|---------7-6-----|-----------------|------------|
A-7-----9-7-9---|-------------9---|-------------9---|-----------------|------------|
E---------------|-----------------|---------------0-|-----------------|------------|
                                                  let ring.........................

G---------------|-----------------|-----------------|-----------------|
D-------------6-|---------7-6---6-|---------7-6-----|-----------------|
A-7-----9-7-9---|-------------9---|-------------9---|-----------------|
E---------------|-----------------|---------------0-|-----------------|
                                                  let ring.............
G---------------|-----------------|-----------------|-----------------|
D-------------6-|---------7-6---6-|---------7-6-----|-----------------|
A-7-----9-7-9---|-------------9---|-------------9---|-----------------|
E---------------|-----------------|---------------0-|-----------------|
                                                  let ring.............



BRIDGE 1
G-----------------|----------------|---------------|--------------|
D-----------------|----------------|-------------4-|------3-------|
A-2-----2-4--4--5-|------0-5-5---5-|-7-----5-7-----|--------------|
E-----------------|----------------|---------------|--------------|

G-----------------|----------------|---------------|--------------|
D-----------------|----------------|-------------4-|------3-------|
A-2-----2-4--4--5-|------0-5-5---5-|-7-----5-7-----|--------------|
E-----------------|----------------|---------------|--------------|




VERSE 2
G---------------|-----------------|-----------------|-----------------|
D-------------6-|---------7-6---6-|---------7-6-----|-----------------|
A-------9-7-9---|-------------9---|-------------9---|-----------------|
E-0-------------|-----------------|---------------0-|-----------------|
                                                  let ring.............
G---------------|-----------------|-----------------|-----------------|
D-------------6-|---------7-6---6-|---------7-6-----|-----------------|
A-7-----9-7-9---|-------------9---|-------------9---|-----------------|
E---------------|-----------------|---------------0-|-----------------|
                                                  let ring.............


BRIDGE 2 - exactly the same as BRIDGE 1, then


  

                                                 This bar
 MID SECTION                                         2/4
G---------------|----------------|---------------|----------|
D---------------|----------------|---------------|----------|
A-------2-2-----|----------------|-------2-2-----|----------|
E-4---4-------3-|----3-3-3-----4-|-----4-------3-|----------|
                                               Let ring......

G---------------|----------------|---------------|----------------|
D---------------|----------------|---------------|----------------|
A-------2-2-----|----------------|-------2-2-----|----------------|
E-4---4-------3-|----3-3-3-----4-|-----4-------3-|--3-3-3-3-3-3-3-|
                                               




[ Tab from: http://www.guitartabs.cc/tabs/h/hot_hot_heat/in_cairo_btab.html ]
VERSE 3
Silent until last line
G---------------|-----------------|-----------------|-----------------|
D-------------6-|---------7-6---6-|---------7-6-----|-----------------|
A-7-----9-7-9---|-------------9---|-------------9-7-|-----------------|
E---------------|-----------------|-----------------|-----------------|
                                                  let ring.............






                                                   This bar
 MID SECTION AGAIN                                    2/4
G---------------|----------------|---------------|----------|
D-6---6-9-9---5-|-----5-5-5----6-|-----6-9-9---5-|----5-5-5-|
A---------------|----------------|---------------|----------|
E---------------|----------------|---------------|----------|
                                               Let ring......

G---------------|----------------|---------------|------------------|
D-6---6-9-9---5-|-----5-5-5----6-|-----6-9-9---5-|-5-5-5-5-5-5-5-5--|
A---------------|----------------|---------------|------------------|
E---------------|----------------|---------------|------------------|
                                               
G-----------------|
D-5-5-5-5-5-5-5-5-|
A-----------------|
E-----------------|

  Then onto this...                                This bar
                                                     2/4
G---------------|----------------|---------------|----------|
D---------------|----------------|---------------|----------|
A-------2-2-----|----------------|-------2-2-----|----------|
E-4---4-------3-|----3-3-3-----4-|-----4-------3-|----3-3-3-|
                                               
G---------------|----------------|---------------|----------------|
D---------------|----------------|---------------|----------------|
A-------2-2-----|----------------|-------2-2-----|----------------|
E-4---4-------3-|----3-3-3-----4-|-----4-------3-|--3-3-3-3-3-3-3-|

G-----------------|----------------|--------------|----------------|
D-----------------|----------------|--------------|----------------|
A-----------------|----------------|--------------|----------------|
E-3-3-3-3-3-3-3-3-|-4--------------|--------------|----------------|
                                piano...............................

G-----------------|---------------|---------------|--------------|-----------------|
D-----------------|----------10---|---------------|--------------|-----------------|
A-----------------|-7-----10------|--10-----------|-5------------|-3-3-3-3-3-3-3-3-|
E-----------------|-------------8-|---------8-----|------3-------|-----------------|
...................

G---------------|---------------|--------------|-------------------|
D----------10---|---------------|--------------|-------------------|
A-7-----10------|--10-----------|-5------------|-3-3-3-3-3-3-3-3su-|
E-------------8-|---------8-----|------3-------|-------------------|

G-------------------------|
D-------------------------|
A-15-15-15-15-15-15-15-15-|
E-------------------------|



OUTRO
G---------------|---------------|----------------|-----------------|
D---------------|--5------------|----------------|-----------------|
A--7------5-----|---------4-----|-5--------------|-3-3-3-3-3-3-3-3-|
E---------------|---------------|-------3--------|-----------------|

G---------------|---------------|----------------|-----------------|
D---------------|--5------------|----------------|-----------------|
A--7------5-----|---------4-----|-5--------------|-3-3-3-3-3-3-3-3-|
E---------------|---------------|-------3--------|-----------------|

G---------------|---------------|----------------|-----------------|
D---------------|--5------------|----------------|-----------------|
A--7------5-----|---------4-----|-5--------------|-3-3-3-3-3-3-3-3-|
E---------------|---------------|-------3--------|-----------------|

G---------------|---------------|----------------|-----------------|
D---------------|--5------------|----------------|-----------------|
A--7------5-----|---------4-----|-5--------------|-3---3---3---3---|
E---------------|---------------|-------3--------|-----------------|

G-----------------|-----------------|-----------------|-------------|
D-----------------|-----------------|-----------------|-------------|
A-3---3---3---3---|-3-3-3-3-3-3-3-3-|-3-3-3-3-3-3-3-3-|-7-----------|
E-----------------|-----------------|-----------------|-------------|
                                                         let ring....

G--------------|---------------|--------------|---------------|
D--------------|---------------|--------------|---------------|
A--------------|---------------|--------------|-3-------------|
E--------------|---------------|--------------|---------------|
...............................................


Performance Tips: Play the main figure nice and smoothly.


Comments