Hot Hot Heat - Bandages Chords & Tabs

 

Bandages Chords & Tabs

Hot Hot Heat Chords & Tabs

Version: 3 Type: Bass Tab 0 ratings
1 star 2 stars 3 stars 4 stars 5 stars
comments

Bandages Bass Tab

----------------------------------------------------------------------------
			     BANDAGES - Hot Hot Heat
----------------------------------------------------------------------------

Tabbed By : Erica M.
e-mail: flavoredepoxy@yahoo.com

Tuning: Standard (EADG)


Intro
G|-------------------------------------------------------------------------|
D|-------------------------------------------------------------------------|
A|-3--3-3--3----------------------3----------------------------------------|
E|----------3--3-3--3-5-3-5-3-5-5---5--------------------------------------|



("These bandages cover more than scrapes...")

G|-------------------------------------------------------------------------|
D|-------------------------------------------------------------------------|
A|-----3--------(x11)----------------------3---------------------3---------|
E|-0-5---5----------------5--5-5--5-5--0-5---5-3--5--0-5-0-5-0-5---5-3-----|



Chorus ("Bandages on my legs..")
G|-------------------------------------------------------------------------|
D|-------------------------------------------------------------------------|
A|-3--3-3--3-----------------------3--------(x2)---------------------------|
E|-----------3--3-3--3-5-3-5-3-5-5---5-------------------------------------|

[ Tab from: http://www.guitartabs.cc/tabs/h/hot_hot_heat/bandages_btab_ver_3.html ]
 ("I've been hoping..")
G|-------------------------------------------------------------------------|
D|-------------------------------------------------------------------------|
A|----------------------(x4)-----------------------------------------------|
E|-5-5--5---5-5--3---------------------------------------------------------|


 ("I've been shaking for making..")
G|-------------------------------------------------------------------------|
D|-------------------------------------------------------------------------|
A|-----3------(x3)------------------------3---------------------3----------|
E|-0-5---5---------------5--5-5--5-5--0-5---5-3--5--0-5-0-5-0-5---5-3------|


Chorus


(Don't worry now..")
G|-------------------------------------------------------------------------|
D|-------------------------------------------------------------------------|
A|----------------------------------(x3)-----------------------------------|
E|-5-5--5--0-0--0--3-3--3--5-5--5------------------------------------------|

G|-------------------------------------------------------------------------|
D|-------------------------------------------------------------------------|
A|-----------------3-----------(x5)----------------------------------------|
E|-3-5-3-5-3-5-3-5---5-3-5-------------------------------------------------|


Chorus


Outro
G|--------------------------|----------------------------------------------|
D|-3-3-3-3------------------|----------------------------------------------|
A|---------3-3-3-3----------|----------------3-------(repeat til end)------|
E|-----------------3-3-3-3--|3-5-3-5-3-5-3-5---5-3-------------------------|




============================================================================
Comments