Hot Hot Heat - Bandages Chords & Tabs

 

Bandages Chords & Tabs

Hot Hot Heat Chords & Tabs

Version: 2 Type: Bass Tab 0 ratings
1 star 2 stars 3 stars 4 stars 5 stars
comments

Bandages Bass Tab

Artist - Hot Hot Heat
Song - Bandages


Standard Tuning (EADG)


Verse:
G/---------
D/---------
A/-----3---
E/-3-5---5-

[ Tab from: http://www.guitartabs.cc/tabs/h/hot_hot_heat/bandages_btab_ver_2.html ]
Chorus:
G/-------------------------------------
D/-------------------------------------
A/-3--3-3--3-----------------------3---
E/-----------3--3-3--3-5-3-5-3-5-5---3-


Outro:
G/-------------------------------------------
D/-3-3-3-3---------5-5-5-5-------------------
A/---------3-3-3-3-----------------------3---
E/-------------------------3-5-3-5-3-5-5---3-
Comments