Hot Hot Heat - Bandages Chords & Tabs

 

Bandages Chords & Tabs

Hot Hot Heat Chords & Tabs

Version: 1 Type: Bass Tab 1 rating
1 star 2 stars 3 stars 4 stars 5 stars
comments

Bandages Bass Tab

#----------------------------------PLEASE NOTE---------------------------------#
#This file is the author's own work and represents their interpretation of the #
#song. You may only use this file for private study, scholarship, or research. #
#------------------------------------------------------------------------------##

SONG: Bandages
ARTIST: Hot Hot Heat
Album: Make Up The Breakdown

Submission by Paulie Jay

Bass tab - standard tuning.


INTRO - wait for drums
G------------|-----------|------------|-----------|------------|-----------|
D------------|-----------|------------|-----------|------------|-----------|
A----------3-|-0---------|----------3-|-0---------|----------3-|-0---------|
E------0-3---|-----------|------0-3---|-----------|------0-3---|-----------|

G------------|-----------|------------|-3---3-3---3-|-------------|
D------------|-----------|------------|-------------|-5---5-5---5-|
A----------3-|-0---------|--------0-2-|-------------|-------------|
E------0-3---|-----------|------3-----|-------------|-------------|

G-------------|------5-------|--3---3-3---3-|-------------|-------------|
D-7---5-7---5-|-7-7-----5--5-|--------------|-5---5-5---5-|-7---5-7---5-|
A-------------|--------------|--------------|-------------|-------------|
E-------------|--------------|--------------|-------------|-------------|

G------5--------|
D-7-7-----------|
A-------------3-|
E---------0-3---|


VERSE 1 "These bandages..."

G-----------|------------|-----------|------------|-----------|
D-----------|------------|-----------|------------|-----------|
A-0---------|----------3-|-0---------|----------3-|-0---------|
E-----------|------0-3---|-----------|------0-3---|-----------|

G------------|-----------|------------|-----------|------------|
D------------|-----------|------------|-----------|------------|
A----------3-|-0---------|----------3-|-0---------|----------3-|
E------0-3---|-----------|------0-3---|-----------|------0-3---|

G-----------|------------|-----------|--------------|------------|
D-----------|------------|-----------|-----------10-|------------|
A-0---------|----------3-|-0---------|--------12----|-12---------|
E-----------|------0-3---|-----------|------0-------|------------|

G------------|-----------|------------|-----------|------------|
D------------|-----------|------------|-----------|------------|
A----------3-|-0---------|----------3-|-0---------|----------3-|
E------0-3---|-----------|------0-3---|-----------|------0-3---|

G-----------|------------|------------|---------------|-------------|
D-----------|------------|------------|---------------|-7---5-7---5-|
A-0---------|----------3-|-0----------|---------3-----|-------------|
E-----------|------0-3---|----3-5---3-|-5---3-5---5-3-|-------------|

G------------|
D-7---5-7--9-|
A------------|
E------------|


CHORUS  "Bandages on my legs and my..."

G-----------------|-----------------|-----------------|-------------------|
D-10---10-10---10-|-----------------|-----------------|--------10---------|
A-----------------|-10---10-10---10-|-12---10-12---10-|-12-12------10--10-|
E-----------------|-----------------|-----------------|-------------------|

G-----------------|-----------------|-----------------|------------------|
D-10---10-10---10-|-----------------|-----------------|--------10--------|
A-----------------|-10---10-10---10-|-12---10-12---10-|-12-12----------3-|
E-----------------|-----------------|-----------------|------------0-3---|


VERSE 2  - Drop the first beat

G-------------|-------------|-------------|-------------|
D-------------|-------------|-------------|-------------|
A----0-0---0--|----0-0------|----0-0---0--|----0-0------|
E-------------|----------3--|-------------|----------3--|

G-------------|-------------|-------------|---------------|
D-------------|-------------|-------------|---------------|
A----0-0---0--|----0-0------|----0-0---0--|----0-0------3-|
E-------------|----------3--|-------------|---------0-3---|

G-----------|------------|-----------|------------|-----------|
D-----------|------------|-----------|------------|-----------|
A-0---------|----------3-|-0---------|----------3-|-0---------|
E-----------|------0-3---|-----------|------0-3---|-----------|
[ Tab from: http://www.guitartabs.cc/tabs/h/hot_hot_heat/bandages_btab.html ]
G------------|------------|---------------|-------------|
D------------|------------|---------------|-7---5-7---5-|
A----------3-|-0----------|---------3-----|-------------|
E------0-3---|----3-5---3-|-5---3-5---5-3-|-------------|

G------------|
D-7---5-7--9-|
A------------|
E------------|

Chorus 2

G-----------------|-----------------|-----------------|-------------------|
D-10---10-10---10-|-----------------|-----------------|--------10---------|
A-----------------|-10---10-10---10-|-12---10-12---10-|-12-12------10--10-|
E-----------------|-----------------|-----------------|-------------------|

G-----------------|-----------------|-----------------|-------------------|
D-10---10-10---10-|-----------------|-----------------|--------10---------|
A-----------------|-10---10-10---10-|-12---10-12---10-|-12-12------10--10-|
E-----------------|-----------------|-----------------|-------------------|


G-----------------|-----------------|-----------------|--------------------|
D-10---10-10---10-|-----------------|-----------------|------------10------|
A-----------------|-10---10-10---10-|-12---10-12---10-|-12---10-12----12---|
E-----------------|-----------------|-----------------|------------------0-|

G------------|---------------|
D------------|---------------|
A------------|---------5-----|
E-5--3-5---3-|-5---3-5---5---|

MIDDLE BIT - "Don't worry now..."

G-------------|-------------|------------|------------|
D----7-7------|-------------|---5-5---5--|---7-7---7--|
A----------7--|----7-7---7--|------------|------------|
E-------------|-------------|------------|------------|

G-------------|-------------|------------|------------|
D----7-7------|-------------|---5-5---5--|---7-7---7--|
A----------7--|----7-7---7--|------------|------------|
E-------------|-------------|------------|------------|

G-------------|-------------|------------|------------|
D----7-7------|-------------|---5-5---5--|---7-7---7--|
A----------7--|----7-7---7--|------------|------------|
E-------------|-------------|------------|------------|


G-------------|---------5-----|-------------|---------5-----|
D-7---5-7---5-|-7---5-7---7-5-|-7---5-7---5-|-7---5-7---7-5-|
A-------------|---------------|-------------|---------------|
E-------------|---------------|-------------|---------------|

G-------------|---------5-----|-------------|---------5-----|
D-7---5-7---5-|-7---5-7---7-5-|-7---5-7---5-|-7---5-7---7-5-|
A-------------|---------------|-------------|---------------|
E-------------|---------------|-------------|---------------|

G-------------|---------5-----|-------------|---------------|
D-7---5-7---5-|-7---5-7---7-5-|-7---5-7---5-|-7---5-7---9---|
A-------------|---------------|-------------|---------------|
E-------------|---------------|-------------|---------------|

CHORUS 3


G-----------------|-----------------|-----------------|-------------------|
D-10---10-10---10-|-----------------|-----------------|--------10---------|
A-----------------|-10---10-10---10-|-12---10-12---10-|-12-12------10--10-|
E-----------------|-----------------|-----------------|-------------------|

G-----------------|-----------------|-----------------|-------------------|
D-10---10-10---10-|-----------------|-----------------|--------10---------|
A-----------------|-10---10-10---10-|-12---10-12---10-|-12-12------10--10-|
E-----------------|-----------------|-----------------|-------------------|

G-----------------|-----------------|-----------------|-------------------|
D-10---10-10---10-|-----------------|-----------------|--------10---------|
A-----------------|-10---10-10---10-|-12---10-12---10-|-12-12------10--10-|
E-----------------|-----------------|-----------------|-------------------|

G-10-10-10-10-------------|-------------------------|-----------------|
D-------------10-10-10-10-|-------------------------|-----------------|
A-------------------------|-10-10-10-10-10-10-10-10-|-12---10-12---10-|
E-------------------------|-------------------------|-----------------|

G--------------------|-------------|---------------|---------|---------|
D------------10------|-------------|---------------|---------|---------|
A-12---10-12----12---|-------------|---------3-----|-0-------|---------|
E------------------0-|-5---0-5---0-|-5---0-5---5-3-|---------|------3--|

G---------|--------------|---------|
D---------|------2--0----|---------|
A-0-------|------------4-|-0-------|
E---------|--------------|---------|
             Rit.


PERFORMANCE TIPS - Keep track of where you are in the song - each verse
is of a different length.




Comments