Hot Hot Heat - Aveda Chords & Tabs

 

Aveda Chords & Tabs

Hot Hot Heat Chords & Tabs

Version: 1 Type: Bass Tab

Aveda Bass Tab

#----------------------------------PLEASE NOTE---------------------------------#
#This file is the author's own work and represents their interpretation of the #
#song. You may only use this file for private study, scholarship, or research. #
#------------------------------------------------------------------------------##

SONG: Aveda
ARTIST: Hot Hot Heat
Album: Make Up The Breakdown

Submission by Paulie Jay

Bass tab - standard tuning



Drum intro
G-------------|-------------|
D-------------|-------------|
A-------------|-2-----------|
E-------------|-------------|



VERSE 1
G-------------|-------------|-------------|-------------|
D-------------|-------------|-------------|-------------|
A-------------|-------------|-------------|-2-----------|
E-4-4-------4-|-3-3-------3-|-4-4---------|-------------|

G-------------|-------------|-------------|-------------|
D-------------|-------------|-------------|-------------|
A-------------|-------------|-------------|-2--2--2--2--|
E-4-4-------4-|-3-3-------3-|-4-4---------|-------------|



CHORUS 1 "Hold me down..."   su = slide up

G------------|--------------|-------------|-------------|
D------------|--------------|-------------|-------------|
A------------|--------------|-------------|-------------|
E-0--------0-|-4----------4-|-0---------0-|-4-----------|

G--------------|-------------|
D--------------|-------------|
A--------------|-------------|
E-4---4-4--4su-|-15----------|



VERSE 2 
G-------------|-------------|-------------|-------------|
D-------------|-------------|-------------|-------------|
A-------------|-------------|-------------|-2--2--2--2--|
E-4-4-------4-|-3-3-------3-|-4-4---------|-------------|

G-------------|-------------|-------------|-------------|
D-------------|-------------|-------------|-------------|
A-------------|-------------|-------------|-2--2--2--2--|
E-4-4-------4-|-3-3-------3-|-4-4---------|-------------|



CHORUS 2
G------------|--------------|-------------|-------------|
D------------|--------------|-------------|-------------|
A------------|--------------|-------------|-------------|
E-0--------0-|-4----------4-|-0---------0-|-4-----------|

G--------------|-------------|------------|--------------|
D--------------|-------------|------------|--------------|
A--------------|-------------|------------|--------------|
E-4----4-4---4-|-3-----------|-0--------0-|-4----------4-|
[ Tab from: http://www.guitartabs.cc/tabs/h/hot_hot_heat/aveda_btab.html ]
G-------------|-------------|--------------|-------------|
D-------------|-------------|--------------|-------------|
A-------------|-------------|--------------|-------------|
E-0---------0-|-4-----------|-4---4-4--4su-|-15----------|



DRUM BREAK, then

G-----------------|-----------------|-----------------|-----------------|
D-----7-----7-----|-----6-----6---6-|-----7-----7-----|-----6-----6---6-|
A-6-6---6-----6-0-|-5-5---5-----5---|-6-6---6-----6-0-|-5-5---5-----5---|
E-----------------|-----------------|-----------------|-----------------|

G-----------------|-----------------|-----------------|-----------------|
D-----7-----7-----|-----6-----6---6-|-----7-----7-----|-----6-----6---6-|
A-6-6---6-----6-0-|-5-5---5-----5---|-6-6---6-----6-0-|-5-5---5-----5---|
E-----------------|-----------------|-----------------|-----------------|



VERSE 3

G-------------|-------------|-------------|-----------------|
D-------------|-------------|-------------|-----------------|
A-------------|-------------|-------------|---2---2---2--2--|
E-4-4-------4-|-3-3-------3-|-4-4---------|-----------------|

G-------------|-------------|-------------|-----------------|
D-------------|-------------|-------------|-----------------|
A-------------|-------------|-------------|---2---2---2--2--|
E-4-4-------4-|-3-3-------3-|-4-4---------|-----------------|

VERSE 4
Silent for first part, then slide in   sd = slide down

G-------------|-------------|------------|-------------|------------|
D-------------|-------------|------------|-------------|------------|
A---------11SD|-------------|------------|-------------|------------|
E-------------|-0---0-0---0-|-4-----4--4-|-0---0-0---0-|-4-----4--4-|

G-------------|------------|-------------|------------|
D-------------|------------|-------------|------------|
A-------------|------------|-------------|------------|
E-0---0-0---0-|-4-----4--4-|-0---0-0---0-|-4-4---4--4-|

G-------------|------------|-------------|------------|
D-------------|------------|-------------|------------|
A-------------|------------|-------------|------------|
E-0-----------|-4-----4--4-|-0-----------|-4-----4--4-|

G-------------|------------|-------------|------------|
D-------------|------------|-------------|------------|
A-------------|------------|-------------|------------|
E-0-----------|-4-----4--4-|-0-----------|-4-----4--4-|


Performance Tips - This is an extremely simple song with only slight 
differences between the verses and choruses, so really concentrate on
nailing the notes and locking them in with the kick drum.