Hot Chip - Over And Over Chords & Tabs

 

Over And Over Chords & Tabs

Hot Chip Chords & Tabs

Version: 1 Type: Tab

Over And Over Tab

Verse- just repeat

      up  down
e|-------------------|
b|-------------------|
g|------5-5----------|
d|------5-5----------|
a|------3-3----------|
e|-------------------|

 Chorus x2
[ Tab from: http://www.guitartabs.cc/tabs/h/hot_chip/over_and_over_tab.html ]
e|-------------------------------------------------------------------|
b|------------------------------------------------                   |
g|---5-5-5-5-5-5-5-5-8-8-8-8-8-8-8-8-7-7-7-7-7-7-7-7-5-5-5-5-5-5-5-5-|
d|---5-5-5-5-5-5-5-5-8-8-8-8-8-8-8-8-7-7-7-7-7-7-7-7-5-5-5-5-5-5-5-5-|
a|---3-3-3-3-3-3-3-3-6-6-6-6-6-6-6-6-5-5-5-5-5-5-5-5-3-3-3-3-3-3-3-3-|
e|-------------------------------------------------------------------|


Guitar solo bit

e|-------------------------------|
b|------------------8------------|
g|---12b-12-10-8-10---10-8-------|
d|--------------------------10---|
a|-------------------------------|
e|-------------------------------|

sorry bout the gap in the chorus but its the only  way i could get it 2 fit on.