Hot Butter - Popcorn Chords & Tabs

 

Popcorn Chords & Tabs

Hot Butter Chords & Tabs

Version: 2 Type: Tab 0 ratings
1 star 2 stars 3 stars 4 stars 5 stars
comments

Popcorn Tab

http://www.chaosmusic.com/shop/artist.asp?artistID=53611

Band  : Hot Butter
Album : Popcorn
Song  : Popcorn

YAH I KNOW !! that there isnt a guitar part for this song,
but i tabbed it out anyway!  Have fun
This song is in standard tuning.  I spent 3 hours searching the internet for this
tab but nothing came up, so i decided to put my laziness to rest and tab it out,
Hopefully its perfect, but if not.... meh....


       

       
e--7-5-7--------|     
b--------7---7--|
g----------7---4| x2
d---------------|
a---------------|
e---------------|

--7-9-10-9-10-7-9-7-9-5-7-5---5-7----|
----------------------------7--------|
-------------------------------------|
-------------------------------------|
-------------------------------------|
-------------------------------------|

e--7-5-7--------|     
b--------7---7--|
g----------7---4| x2
d---------------|
a---------------|
e---------------|

--7-9-10-9-10-7-9-7-9-5-7-5-7-9-10---|
-------------------------------------|
-------------------------------------|
-------------------------------------|
-------------------------------------|
-------------------------------------|

--14-12-14-------------|
-----------14----14----|
--------------14----11-|
-----------------------| x2
-----------------------|
-----------------------|

--14-16-17-16-17-14-16-14-16-12-14-12----12-14|
--------------------------------------14------|
----------------------------------------------|
----------------------------------------------|
----------------------------------------------|
----------------------------------------------|

--14-12-14-------------|
-----------14----14----|
--------------14----11-|
-----------------------| x2
-----------------------|
-----------------------|

--14-16-17-16-17-14-16-14-16-12-14-12-14-16-17|
----------------------------------------------|
----------------------------------------------|
----------------------------------------------|
----------------------------------------------|
----------------------------------------------|
[ Tab from: http://www.guitartabs.cc/tabs/h/hot_butter/popcorn_tab_ver_2.html ]
           * *
e--7-5-7--------|     *play these notes faster now 
b--------7---7--|
g----------7---4| x2
d---------------|
a---------------|
e---------------|

--7-9-10-9-10-10-7-9-7-9-9-5-7-5-7-7-5-7-|
-----------------------------------------|
-----------------------------------------|
-----------------------------------------|
-----------------------------------------|
-----------------------------------------|

           * *
e--7-5-7--------|     *play these notes faster now 
b--------7---7--|
g----------7---4| x2
d---------------|
a---------------|
e---------------|


--7-9-10-9-10-10-7-9-7-9-9-5-7-5-7-7-9-10|
-----------------------------------------|
-----------------------------------------|
-----------------------------------------|
-----------------------------------------|
-----------------------------------------|

               *  *
--14-12-14-------------|
-----------14----14----|       *play these notes faster now
--------------14----11-|
-----------------------| x2
-----------------------|
-----------------------|

--14-16-17-16-17-17-14-16-14-16-16-12-14-12-14-14-12-14-|
--------------------------------------------------------|
--------------------------------------------------------|
--------------------------------------------------------|
--------------------------------------------------------|
--------------------------------------------------------|

               *  *
--14-12-14-------------|
-----------14----14----|       *play these notes faster now
--------------14----11-|
-----------------------| x2
-----------------------|
-----------------------|


--14-16-17-16-17-17-14-16-14-16-16-12-14-12-14-14-16-17-|
--------------------------------------------------------|
--------------------------------------------------------|
--------------------------------------------------------|
--------------------------------------------------------|
--------------------------------------------------------|
there now repeat the main riffs throughout the song, and your done!

Lyrics:
doo doo doo do doo dah doo
doo doo doo do doo dah doo
doo doo doo do doo dah doo
and you get the point

WEll there you go!  One of the most addictive songs ever. Minnedosa. 

-Grate_DAVE  (Minnedosa)
Comments