Hot Action Cop - Fever For The Flava Chords & Tabs

 

Fever For The Flava Chords & Tabs

Hot Action Cop Chords & Tabs

Version: 5 Type: Tab 0 ratings
1 star 2 stars 3 stars 4 stars 5 stars
comments

Fever For The Flava Tab

   
-----------------------------------------------------------------------------
			     FEVER FOR THE FLAVA - HOT ACTION COP
-----------------------------------------------------------------------------
Tabbed by:Glitch
email: hellhound388@netscape.net

this is a really cool song...enjoy.

Tuning:DADGBE-DROP D

	intro-palm muted
e|------------------------------------------------------------------------|
B|------------------------------------------------------------------------|
G|------------------------------------------------------------------------|
D|-------------7--6-----6--9--9----------7--6-----6--4--4-----------------|x4
A|-------7--7--------7-------------7--7--------7--------------------------|
D|------------------------------------------------------------------------|

						     listen to the song
     verse-distortion       	                     for this pattern
e|-----------------------------------------------------------x--x--x--x--x|
B|-----------------------------------------------------------x--x--x--x--x|
G|----9---9------8-------------------------------------------x--x--x--x--x|
D|----9---9------8-------6------6/7-----4---4----------------x--x--x--x--x|x3
A|----7---7------6-------6------6/7-----4---4----------------x--x--x--x--x|
D|-----------------------6------6/7-----4---4----------------x--x--x--x--x|
                                 *
[ Tab from: http://www.guitartabs.cc/tabs/h/hot_action_cop/fever_for_the_flava_tab_ver_5.html ]
chorus:	Third time: guitar 2 plays chopped mutes underneath the melody...
e|------------------------------------------------------------------|-----|
B|------------------------------------------------------------------|-----|
G|---9----------8---------------------------------------------------|-----|
D|---9----------8-----------7--------------9------------------------|---7-|x3
A|---7----------6-----------7--------------9------------------------|---7-|
D|--------------------------7--------------9------------------------|---7-|
     oh hey, hay hey hay hey hayyyy! oh pretty pretty shy,WOH!WOH!   last  
								     time 


	next play the verse without the end mute
	intro
	chorus	
	verse


	Bridge
e|-------------------------------------------------------------------------|
B|-------------------------------------------------------------------------|
G|-------------------------------------------------------------------------|
D|--2----4/5---4/5---4/5---4/5---------------------------------------------|
A|--2----4/5---4/5---4/5---4/5---------------------------------------------|
D|--2----4/5---4/5---4/5---4/5---------------------------------------------|


	lead guitar plays on top(tremolo effect)
e|-------------------------------------------------------------------------|
B|-------------------------------------------------------------------------|
G|-----9------11------12------14------12-----------------------------------|
D|-------------------------------------------------------------------------|
A|-------------------------------------------------------------------------|
D|-------------------------------------------------------------------------|


	intro again(w/mute)
	verse	
	chorus	
	verse
	bridge(outro)


*optional slide...but its in the song for sure...
____________________________________________________________________________

| /  slide up
| \  slide down
| h  hammer-on
| p  pull-off
| ~  vibrato
| +  harmonic
| x  Mute note
============================================================================
Comments