Hot Action Cop - Fever For The Flava Chords & Tabs

 

Fever For The Flava Chords & Tabs

Hot Action Cop Chords & Tabs

Version: 4 Type: Tab 0 ratings
1 star 2 stars 3 stars 4 stars 5 stars
comments

Fever For The Flava Tab

Standard Tuning

Intro - palm mute
|------------------------------------
|------------------------------------
|------------------------------------
|------7-6---6-9-9------7-6---6-4-4-- 
|--7-7-----7--------7-7-----7--------
|------------------------------------

Verse
|-------------------------------------
|---------------------x-x-x-x-x-x-x-x-
|-9-9--8--------------x-x-x-x-x-x-x-x-
|-9-9--8--6--6--4-4---x-x-x-x-x-x-x-x-
|-7-7--6--6--6--4-4---x-x-x-x-x-x-x-x-
|---------4--4--2-2-------------------

Chorus
|-------------------------------------------------------
|-------------------------------------------------------
|---9---8-----------------------------------------------
|---9---8------------------7----------------9-----------
|---7---6------------------7----------------9-----------
|--------------------------5----------------7-----------
 Oh hey hey hey hey heeey, oh pretty pretty shy woh woh
[ Tab from: http://www.guitartabs.cc/tabs/h/hot_action_cop/fever_for_the_flava_tab_ver_4.html ]
last time round in the chorus, play the A5 at the end

then play the verse without the mutes at the end followed by the intro riff and
the chorus again and again the verse

then this as a bridge thing
|----------------------
|----------------------
|----------------------
|-2-2--4/5-4/5-4/5-4/5-
|-2-2--4/5-4/5-4/5-4/5-
|-0-0--2/3-2/3-2/3-2/3-

lead guitar plays over the top with an effect
|--------------------------
|--------------------------
|-9---11---12---14---12----
|--------------------------
|--------------------------
|--------------------------
 tremelo pick

intro played again, choping (mutes) underneath from lead guitar
followed by verse riff and then chorus
verse again and then the bridge ending......

|---------------------------
|---------------------------
|---------------------------
|-2-2--4/5-4/5-4/5-4/5--2-2-
|-2-2--4/5-4/5-4/5-4/5--2-2-
|-0-0--2/3-2/3-2/3-2/3--0-0-

that's the whole song, enjoy.
any questions? andrewbiles@hotmail.com
Comments