Hot Action Cop - Fever For The Flava Chords & Tabs

 

Fever For The Flava Chords & Tabs

Hot Action Cop Chords & Tabs

Version: 3 Type: Tab 0 ratings
1 star 2 stars 3 stars 4 stars 5 stars
comments

Fever For The Flava Tab

## http://www.hotactioncop.com/ ###

That's all i found out up to now, i'll further try.
Plz be indulgently, i play the guitar since just 2 months, so in not a pro ;)

[ Tab from: http://www.guitartabs.cc/tabs/h/hot_action_cop/fever_for_the_flava_tab_ver_3.html ]
E|-----------------------------------------
B|-----------------------------------------
G|-----------------------------------------
D|------6-7-6---6-9-9-------6-7-6---6-4-4-- x6
A|--7-7-------7---------7-7-------7--------
E|-----------------------------------------


E|--------------------
B|--------------------
G|--9-9-8-4--4\6\4-4--
D|--9-9-8-4--4\6\4-4-- x3
A|--7-7-6-2--2\4\2-2--
E|--------------------
Comments