Hot Action Cop - Fever For The Flava Chords & Tabs

 

Fever For The Flava Chords & Tabs

Hot Action Cop Chords & Tabs

Version: 2 Type: Tab 2 ratings
1 star 2 stars 3 stars 4 stars 5 stars
comments

Fever For The Flava Tab

   
#----------------------------------PLEASE NOTE---------------------------------#
#This file is the author's own work and represents their interpretation of the #
#song. You may only use this file for private study, scholarship, or research. #
#------------------------------------------------------------------------------#

Date: Fri, 28 Feb 2003
From: Nigel

		Hot Action Cop 

				"Fever for the Flava"


This is an awful song and I hate it.  It reminds me alot of myself.
Standard Tuning (EADGBe)

Verse:

e| -------------------------------------- |
B| ---------------0-0-------------------- |
G| -----1h2p1---1----------1h2p1---1----- |
D| -2-2-------2-------2-2--------2---4-4- |
A| -------------------------------------- |
E| -------------------------------------- |

Pre Chorus:

e| ------------------------------------- |
B| ------------------------------------- |
G| -9-9-9-x-8-x------------------------- |
D| -9-9-9-x-8-x-6-x-6-4-4-4-x-4-x-4-x-4- |
A| -7-7-7-x-6-x-6-x-6-4-4-4-x-4-x-4-x-4- |
E| -------------4-x-4-2-2-2-x-2-x-2-x-2- |

Chorus:
[ Tab from: http://www.guitartabs.cc/tabs/h/hot_action_cop/fever_for_the_flava_tab_ver_2.html ]
e| -------------------------- |
B| -------------------------- |
G| -------------------------- |  x2
D| -2-2-2-6-6-6-/7-7-7-9-9-9- |
A| -2-2-2-6-6-6-/7-7-7-9-9-9- |
E| -0-0-0-4-4-4-/5-5-5-7-7-7- |

   "hey-ey-ey-ey..."

e| --------------------------------------- |
B| --------------------------------------- |
G| --------------------------------------- | 
D| -2-2-2-6-6-6-/7-7-7-9-9-9-9-9-9-7-7-7-7 |
A| -2-2-2-6-6-6-/7-7-7-9-9-9-9-9-9-7-7-7-7 |
E| -0-0-0-4-4-4-/5-5-5-7-7-7-7-7-7-5-5-5-5 |

  "what do..."                   "what do i have to say..."

Post Chorus:

e| ------------------------------------- |
B| ------------------------------------- |
G| -9-9-9-x-8-x------------------------- |
D| -9-9-9-x-8-x-6-x-6-4-4-4-x-4-x-4-x-4- |
A| -7-7-7-x-6-x-6-x-6-4-4-4-x-4-x-4-x-4- |
E| -------------4-x-4-2-2-2-x-2-x-2-x-2- |

Bridge:

e| ------------------------------- |
B| ------------------------------- |
G| ------------------------------- |
D| ------------------------------- |
A| ------------------------------- |
E| -0-0-1h2p0-2h3p0-1h2p0-1h2h3p0- |

during the second verse a second guitar plays an Em chord behind the 
main verse riff and occasionally bends and releases 3rd fret on the
low E string.

that's pretty much it.
questions, comments, virus-laced hate mail send to:guitardalek@yahoo.com
Comments