Hot Action Cop - Fever For The Flava Chords & Tabs

 

Fever For The Flava Chords & Tabs

Hot Action Cop Chords & Tabs

Version: 1 Type: Bass Tab 0 ratings
1 star 2 stars 3 stars 4 stars 5 stars
comments

Fever For The Flava Bass Tab

   
-------------------------------------------------------------------------------
			     SONG NAME - Band Name
-------------------------------------------------------------------------------

Tabbed By : PA OK
e-mail: pa__ok@hotmail.com

Tuning:standard

Come in at 00:12

intro
G|------------------------------------------------------------------------------|
D|------------------------------------------------------------------------------|
A|------------------------------------------------------------------------------|
E|--0-0----0-0----0-0----0-0----0-0----0-0----0-0----0-0------------------------|

pre-chorus
G|------------------------------------------------------------------------------|
D|------------------------------------------------------------------------------|
A|--77777-666--------------77777-666---------------77777-666--------------------|
E|------------4444-2222---------------4444-2222--------------4444-2222----------|

chorus
G|------------------------------------------------------------------------------|
D|------------------------------------------------------------------------------|
A|------------------------------------------------------------------------------|
E|--0000-4444-5555-7777-0000-4444-5555-7777-0000-4444-5555-77777777-44444444----|

then
G|------------------------------------------------------------------------------|
D|------------------------------------------------------------------------------|
A|--77777-666-------------------------------------------------------------------|
E|------------4444-2222----/12--------------------------------------------------|

then
G|------------------------------------------------------------------------------|
D|------------------------------------------------------------------------------|
A|------------------------------------------------------------------------------|
E|0-0--0-0--0-0--0-0--0-0--0-0--0-0--0-0--0-0--0-0--0-0--0-0--0-0--0-0--0-0--0-0|

then
G|----------------------xx-------------------------xx---------------------------|
D|----------------------xx-------------------------xx---------------------------|
A|--77777-666-----------xx----77777-666------------xx----77777-666--------------|
E|------------4444-2222-xx---------------4444-2222-xx--------------4444-2222----|
                         ^ 
                         Strum lots of these, listen to song for the rythm
chorus
G|------------------------------------------------------------------------------|
D|------------------------------------------------------------------------------|
A|------------------------------------------------------------------------------|
E|--0000-4444-5555-7777-0000-4444-5555-7777-0000-4444-5555-77777777-44444444----|
[ Tab from: http://www.guitartabs.cc/tabs/h/hot_action_cop/fever_for_the_flava_btab.html ]
then
G|----------------------xx---------------------xx--------------------xx---------|
D|----------------------xx---------------------xx--------------------xx---------|
A|--77777-666-----------xx-77777-666-----------xx-77777-666----------xx---------|
E|------------4444-2222-xx-----------4444-2222-xx----------4444-2222-xx---------|

then
G|----------------------xx------------------------------------------------------|
D|----------------------xx------------------------------------------------------|
A|--77777-666-----------xx------------------------------------------------------|
E|------------4444-2222-xx------------------------------------------------------|

brekdown thing x 10 (i think)
G|------------------------------------------------------------------------------|
D|------------------------------------------------------------------------------|
A|------------------------------------------------------------------------------|
E|-0-00-020-020-020-0232--------------------------------------------------------|

then this tricky thing for the verse (i m pretty sure its wrong)
      p          P        P
G|----5h7-7------5h7-7----5h7-7-------------------------------------------------|
D|------------------------------------------------------------------------------|
A|------------------------------------------------------------------------------|
E|-00---------00--------00------------------------------------------------------|

then
G|----------------------xx-------------------------xx---------------------------|
D|----------------------xx-------------------------xx---------------------------|
A|--77777-666-----------xx----77777-666------------xx----77777-666--------------|
E|------------4444-2222-xx---------------4444-2222-xx--------------4444-2222----|

chorus
G|------------------------------------------------------------------------------|
D|------------------------------------------------------------------------------|
A|------------------------------------------------------------------------------|
E|--0000-4444-5555-7777-0000-4444-5555-7777-0000-4444-5555-77777777-44444444----|

then
G|----------------------xx---------------------xx--------------------xx---------|
D|----------------------xx---------------------xx--------------------xx---------|
A|--77777-666-----------xx-77777-666-----------xx-77777-666----------xx---------|
E|------------4444-2222-xx-----------4444-2222-xx----------4444-2222-xx---------|

then
G|----------------------xx------------------------------------------------------|
D|----------------------xx------------------------------------------------------|
A|--77777-666-----------xx------------------------------------------------------|
E|------------4444-2222-xx------------------------------------------------------|

brekdown thing x 5 (i think)
G|------------------------------------------------------------------------------|
D|------------------------------------------------------------------------------|
A|------------------------------------------------------------------------------|
E|-0-00-020-020-020-0232--------------------------------------------------------|


| /  slide up
| \  slide down
| h  hammer-on
| p  pull off
| ~  vibrato
| +  harmonic
| x  Mute note
  P  pop
===============================================================================
Comments