Hot Action Cop - Busted Chords & Tabs

 

Busted Chords & Tabs

Hot Action Cop Chords & Tabs

Version: 1 Type: Tab 0 ratings
1 star 2 stars 3 stars 4 stars 5 stars
comments

Busted Tab

Intro
-------------------0--0h3-0h3-0----------------|
-----1--------0-3-----------------3-1-0h1p0----|
-------2---2---------------------------------2-|
---2-----2---------------------------------2---|
-0---------------------------------------------|
--------------3----1--1------------------------|
[ Tab from: http://www.guitartabs.cc/tabs/h/hot_action_cop/busted_tab.html ]
----------------3--0-----0---------------|
------1-------0------------1---1---0---0-|
--------2--------------0-----0-----------|
---2-------------------------------------|
-0---------------------------------------|
--------------3----1--1----------1---3---|

verse(s)
-0000xx00--------3333xx33--------|
-1111xx11--------0000xx00--------|
-2222xx22-----0--0000xx00--------|
-2222xx22-0h2----0000xx00-----0--|
-0000xx00--------2222xx22-0h2----|
-----------------3333xx33--------|

Chorus
-0--0--1--------|
-1--1--0--------|
-0--2--0--  <---| strum these until it fits
-2--2--0--------|
-3--0--2--------|
-------3--------|
"...to the world outside..."

after chorus...play once
-11x1--|
-11x1--|
-22x2--|
-33x3--|
-00x0--|
-------|
"...makes u crazy...."
Comments