Hosen Toten - Wort Zum Sonntag Chords & Tabs

 

Wort Zum Sonntag Chords & Tabs

Hosen Toten Chords & Tabs

Version: 1 Type: Tab 0 ratings
1 star 2 stars 3 stars 4 stars 5 stars
comments

Wort Zum Sonntag Tab

   
from: Natalie v. S.
e-mail: stratfreak@web.de
Album: Bis zum bitteren Ende (Live)

It's not 100% correct, but it works. It should be played whith a clean sound and in a pickingway.
Listen to the song while playing, I don't know the rhythm. Have fun.

DIE TOTEN HOSEN - WORT ZUM SONNTAG (LIVE)

Intro: (clean picking)
[ Tab from: http://www.guitartabs.cc/tabs/h/hosen_toten/wort_zum_sonntag_tab.html ]
   Em                     Hm           C                  G        Hm
e|-0-----0-0--------------2------------0--0----------------------------2-----|
h|-0---------0------------3------------1--1--------1-1-1---------------3-----|
G|-0-----------0-------0--4------------0--0------0--------------0------4-----|
D|-2-----------------2----4------------2--2----2--------------0--------4-----|   play two times
A|-2-------------2-2------2------------3--3--3---------------------2-2-2-----|
E|-0------------------------------------------------------3-3----------------|
 
 <               this part is also played in the first Verse                  >   


   C           D           Hm          C            Em
e|-----------------------------------------------||-----------------0-0-0-0-0-0-0-0-|
h|-----------------3---3-------------------1-----||-----------------0-0-0-0-0-0-0-0-|
G|-----0---0-----2---2---------4---4---------0---||-0-0 0-0-0-0-0-0-0-0-0-0-0-0-0-0-|
D|---2---2-----0-------------4---4-------2-----2-||-2-2-2-2-2-2-2-2-2-2-2-2-2-2-2-2-|   
A|-3-----------------------2-----------3---------||-2-2-2-2-2-2-2-2-----------------|
E|-----------------------------------------------||-0-0-0-0-0-0-0-0-----------------|
                                                   ^
                                                   second time play this at the end
                                                   (instead of Hm and C)
 <                 this part is also played in the chorus                           >                                         
Comments