Horslips - Dearg Doom Chords & Tabs

 

Dearg Doom Chords & Tabs

Horslips Chords & Tabs

Version: 1 Type: Tab 1 rating
1 star 2 stars 3 stars 4 stars 5 stars
comments

Dearg Doom Tab

The Horslips 
Dearg Doom

this Riff also appears in Larry Mullens 1990 World Cup Anthem
"Put 'em under pressure


this is the main Riff
|--------------------------------------|
|--------------------------------------|
|--------------------------------------|
|-------3-2--3--2--------3--2---3------|
|---5---------------5------------------|
|--------------------------------------|

[ Tab from: http://www.guitartabs.cc/tabs/h/horslips/dearg_doom_tab.html ]
then it changes to this
|------------------------------|--------------------------------|
|------------------------------|--------------------------------|
|------------------------------|--------------------------------|
|--------3---5------------10---|-------3---5----------10--------|
|----5-------------------------|---5----------------------------|
|------------------------------|--------------------------------|



this is just a rough guide to the song will complete it at a later date
Listen to the song to get the timing right

Any suggestions to therocker@oceanfree.net
Comments