Horrorpops - Julia Chords & Tabs

 

Horrorpops Chords & Tabs

Version: 1 Type: Tab 0 ratings
1 star 2 stars 3 stars 4 stars 5 stars
comments

Julia Tab

   
This is my first try at tabbing... I hope Iíve done ok, and havenít confused you. Iím
sure its accurate. The strumming in the chorus might be a bit different... Iím not sure.
Any comments email me: punk.will.never.die@hotmail.co.uk

e----------------------------|
B----------------------------|
G-x77-7---x-xx-77-7---/19-19-|
D-x77-7---x-xx-77-7---/19-19-|
A-x55-5---x-xx-55-5---/17-17-|
E----------------------------|

e----------------------|
B----------------------|
G-x77777776--x77777776-|
D-x77777776--x77777776-|
A-x55555554--x55555554-|
E----------------------|

e----------------------|
B----------------------|
G-x7-7-10-10-----------|   (x2)
D-x7-7-10-10-8-8-11-11-|
A-x5-5--8--8-8-8-11-11-|
E------------6-6--9--9-|

e-------------------------------|
B-------------------------------|
G-xx-x77-xx-x1010---------------|   (x4)
D-xx-x77-xx-x1010-xx-x88-xx-x11-|
A-xx-x55-xx-x-8-8-xx-x88-xx-x11-|
E-----------------xx-x66-xx-x-9-|

e----------------------|
B----------------------|
G-x77777776--x77777776-|
D-x77777776--x77777776-|
A-x55555554--x55555554-|
E----------------------|

e---------------------------|
B---------------------------|
G-x777-x101010--------------|
D-x777-x101010-x888-x111111-|
A-x555-x-8-8-8-x888-x111111-|
E--------------x666-x-9-9-9-|

e------------------------------------|
B------------------------------------|
G-7-777--10-101010-------------------|
D-7-777--10-101010--8-888--11-111111-|
A-5-555---8--8-8-8--8-888--11-111111-|
E-------------------6-666---9--9-9-9-|

e---------------------------------------------|
B---------------------------------------------|
G-77777777-1010101010101010-55555555-22222222-|
D-77777777-1010101010101010-55555555-22222222-|   (x2)
A-55555555--8-8-8-8-8-8-8-8-33333333-00000000-|
E---------------------------------------------|

e----------------------|
B----------------------|
G-x7-7-10-10-----------|   (x2)
D-x7-7-10-10-8-8-11-11-|
A-x5-5--8--8-8-8-11-11-|
E------------6-6--9--9-|

e-------------------------------|
B-------------------------------|
G-xx-x77-xx-x1010---------------|   (x4)
D-xx-x77-xx-x1010-xx-x88-xx-x11-|
A-xx-x55-xx-x-8-8-xx-x88-xx-x11-|
E-----------------xx-x66-xx-x-9-|

e-------------------------------|
B-------------------------------|
G-x77777776--x7-7777-7777-77776-|
D-x77777776--x7-7777-7777-77776-|
A-x55555554--x5-5555-5555-55554-|
E-------------------------------|
[ Tab from: http://www.guitartabs.cc/tabs/h/horrorpops/julia_tab.html ]
e---------------------------|
B---------------------------|
G-x777-x101010--------------|
D-x777-x101010-x888-x111111-|
A-x555-x-8-8-8-x888-x111111-|
E--------------x666-x-9-9-9-|

e------------------------------------|
B------------------------------------|
G-7-777--10-101010-------------------|
D-7-777--10-101010--8-888--11-111111-|
A-5-555---8--8-8-8--8-888--11-111111-|
E-------------------6-666---9--9-9-9-|

e---------------------------------------------|
B---------------------------------------------|
G-77777777-1010101010101010-55555555-22222222-|   (x2)
D-77777777-1010101010101010-55555555-22222222-|
A-55555555--8-8-8-8-8-8-8-8-33333333-00000000-|
E---------------------------------------------|

e---------------------------------------------------------|
B---------------------------------------------------------|
G-xx-x77-xx-x77-xx-x55-xx-x55-xx-x33-xx-x33-xx-x33-xx-x33-|
D-xx-x77-xx-x77-xx-x55-xx-x55-xx-x33-xx-x33-xx-x33-xx-x33-|
A-xx-x55-xx-x55-xx-x33-xx-x33-xx-x11-xx-x11-xx-x11-xx-x11-|
E---------------------------------------------------------|

e----------------------------------------------------|
B----------------------------------------------------|
G-xx-x77-xx-x77-xx-x55-xx-x55-xx-x33-xx-x33-33333333-|
D-xx-x77-xx-x77-xx-x55-xx-x55-xx-x33-xx-x33-33333333-|
A-xx-x55-xx-x55-xx-x33-xx-x33-xx-x11-xx-x11-11111111-|
E----------------------------------------------------|

e---------------------------------------------------------|
B---------------------------------------------------------|
G-xx-x77-xx-x77-xx-x55-xx-x55-xx-x33-xx-x33-xx-x33-xx-x33-|
D-xx-x77-xx-x77-xx-x55-xx-x55-xx-x33-xx-x33-xx-x33-xx-x33-|
A-xx-x55-xx-x55-xx-x33-xx-x33-xx-x11-xx-x11-xx-x11-xx-x11-|
E---------------------------------------------------------|

e----------------------------------------------------|
B----------------------------------------------------|
G-xx-x77-xx-x77-xx-x55-xx-x55-xx-x33-xx-x33-33333333-|
D-xx-x77-xx-x77-xx-x55-xx-x55-xx-x33-xx-x33-33333333-|
A-xx-x55-xx-x55-xx-x33-xx-x33-xx-x11-xx-x11-11111111-|
E----------------------------------------------------|

e---------------------------------------------|
B---------------------------------------------|
G-77777777-1010101010101010-55555555-22222222-|
D-77777777-1010101010101010-55555555-22222222-|
A-55555555--8-8-8-8-8-8-8-8-33333333-00000000-|
E---------------------------------------------|

e----------------------|
B----------------------|
G-x7-7-10-10-----------|   (x2)
D-x7-7-10-10-8-8-11-11-|
A-x5-5--8--8-8-8-11-11-|
E------------6-6--9--9-|
Comments