Horrorpops - Drama Queen Chords & Tabs

 

Drama Queen Chords & Tabs

Horrorpops Chords & Tabs

Version: 1 Type: Tab 0 ratings
1 star 2 stars 3 stars 4 stars 5 stars
comments

Drama Queen Tab

Band: Horrorpops
Song: Drama Queen
Album: Hell yeah!
Transcriber: Robert Johnstone
Standard Tuning

Intro
E------------------------------------|
B -----------------------------------|
G------------------------------------|
D--7-7-s-9-9-s-11-11-s-9-9-----------|
A--7-7-s-9-9-s-11-11-s-9-9-----------|
E--5-5-s-7-7-s--9--9--s-7-7----------|

Verse
E-------------------------------------------|
B--10-8--10-8--10-8----8h10---8h10----------|
G-------------------------------------------|repeat 2 times
D-------------------------------------------|
A-------------------------------------------|
E-------------------------------------------|

You crashed my home...
E------------------------------------|
B -----------------------------------|
G------------------------------------|
D--7-7-s-9-9-s-11-11-s-9-9-----------|
A--7-7-s-9-9-s-11-11-s-9-9-----------|
E--5-5-s-7-7-s--9--9--s-7-7----------|
   *  *    * *      *    *     *  *
 Say it's not...
E-------------------------------------------|
B--10-8--10-8--10-8----8h10---8h10----------|
G-------------------------------------------|repeat 2 times
D-------------------------------------------|
A-------------------------------------------|
E-------------------------------------------|

The same routine...
She's so mean...
E------------------------------------|
B -----------------------------------|
G------------------------------------|
D--7-7-s-9-9-s-11-11-s-9-9-----------|
A--7-7-s-9-9-s-11-11-s-9-9-----------|
E--5-5-s-7-7-s--9--9--s-7-7----------|

You are...you are...
E------------------------------------|
B -----------------------------------|
G------------------------------------|
D--7-7-s-9-9-s-11-11-s-9-9-----------|
A--7-7-s-9-9-s-11-11-s-9-9-----------|
E--5-5-s-7-7-s--9--9--s-7-7----------|
[ Tab from: http://www.guitartabs.cc/tabs/h/horrorpops/drama_queen_tab.html ]
You had your hopes too high...
E------------------------------------|
B -----------------------------------|
G------------------------------------|
D--7-7-s-9-9-s-11-11-s-9-9-----------|
A--7-7-s-9-9-s-11-11-s-9-9-----------|
E--5-5-s-7-7-s--9--9--s-7-7----------|
   *  *    * *      *    *     *  *

There's complains...
E-------------------------------------------|
B--10-8--10-8--10-8----8h10---8h10----------|
G-------------------------------------------|repeat 2 times
D-------------------------------------------|
A-------------------------------------------|
E-------------------------------------------|

The same routine...
She's so mean...
She's a drama queen...
E------------------------------------|
B -----------------------------------|
G------------------------------------|
D--7-7-s-9-9-s-11-11-s-9-9-----------|
A--7-7-s-9-9-s-11-11-s-9-9-----------|
E--5-5-s-7-7-s--9--9--s-7-7----------|

E-------------------------------------------|
B--10-8--10-8--10-8----8h10---8h10----------|
G-------------------------------------------|
D-------------------------------------------|
A-------------------------------------------|
E-------------------------------------------|

The same routine...
E------------------------------------|
B -----------------------------------|
G------------------------------------|
D--7-7-s-9-9-s-11-11-s-9-9-----------|
A--7-7-s-9-9-s-11-11-s-9-9-----------|
E--5-5-s-7-7-s--9--9--s-7-7----------|

You are...you are...
E------------------------------------|
B -----------------------------------|
G------------------------------------|
D--7-7-s-9-9-s-11-11-s-9-9-----------|
A--7-7-s-9-9-s-11-11-s-9-9-----------|
E--5-5-s-7-7-s--9--9--s-7-7----------|

E-------------------------------------------|
B--10-8--10-8--10-8----8h10---8h10----------|
G-------------------------------------------|
D-------------------------------------------|
A-------------------------------------------|
E-------------------------------------------|

That's all I have figured out, well it's most of it
Comments