Horrorpops - Bring It On Chords & Tabs

 

Bring It On Chords & Tabs

Horrorpops Chords & Tabs

Version: 1 Type: Bass Tab

Bring It On Bass Tab

Intro and Bridge

g------------------------------------------------------|
d------------------------------------------------------|
a-0-0-0-0-0-0-0-0-0-0-0-0-0----------------------------|
e----------------------------2-3-4---------------------|
[ Tab from: http://www.guitartabs.cc/tabs/h/horrorpops/bring_it_on_btab.html ]
Verse
g------------------------------------------------------|
d------------------------------------------------------|
a-0-0-0-0-3-3-3-3--------------------------------------|
e-----------------1-1-1-1-4-4-4-4----------------------|


Chorus
g------------------------------------------------------|
d---------3-3-3-3--------------------------------------|
a-5-5-5-5---------1-1-1-1-1-1-1-1----------------------|
e------------------------------------------------------|

there may be a few notes here and there but this is the basic idea of it!