Horney Skelotons With Antlers - Why Dont You Love Me Chords & Tabs

 

Why Dont You Love Me Chords & Tabs

Horney Skelotons With Antlers Chords & Tabs

Version: 2 Type: Tab 0 ratings
1 star 2 stars 3 stars 4 stars 5 stars
comments

Why Dont You Love Me Tab

   
    #----------------------------------PLEASE NOTE---------------------------------#
    #This file is the author's own work and represents their interpretation of the #
    #Song. You may only use this file for private study, scholarship, or research. #
    #------------------------------------------------------------------------------#

Song:Why dont you love me
By: Horney Skelotons with Antlers
Tabed by: Robert M (acdcdoors5@aol.com)
Words and music by: Robert M

d =strum down
u =strum up
\/=bend up
h =hammer on
p =pull off
/ =slide down
~ =vibrate

  Why dont you love me Jill?
  d d d u   d d d u   d d d u   d d d u
e---------------------3-3-3-3---1-1-1-1---------------------|
B-1-1-1-1-------------0-0-0-0---3-3-3-3---------------------|
G-2-2-2-2---0-0-0-0---0-0-0-0---2-2-2-2---------------------|
D-2-2-2-2---2-2-2-2---0-0-0-0---0-0-0-0---------------------|
A-----------2-2-2-2---2-2-2-2-------------------------------|
E---------------------3-3-3-3-------------------------------|


  When I love you so damn much.
  d d d u   d d d u   d d d u   d d d u
e-----------3-3-3-3-------------1-1-1-1---------------------|
B-1-1-1-1---0-0-0-0-------------3-3-3-3---------------------|
G-2-2-2-2---0-0-0-0---0-0-0-0---2-2-2-2---------------------|
D-2-2-2-2---0-0-0-0---2-2-2-2---0-0-0-0---------------------|
A-----------2-2-2-2---2-2-2-2-------------------------------|
E-----------3-3-3-3-----------------------------------------|

  Why dont you love me Jill
  d d d u   d d d u   d d d u   d d d u
e-----------3-3-3-3-------------1-1-1-1---------------------|
B-1-1-1-1---0-0-0-0-------------3-3-3-3---------------------|
G-2-2-2-2---0-0-0-0---0-0-0-0---2-2-2-2---------------------|
D-2-2-2-2---0-0-0-0---2-2-2-2---0-0-0-0---------------------|
A-----------2-2-2-2---2-2-2-2-------------------------------|
E-----------3-3-3-3-----------------------------------------|
[ Tab from: http://www.guitartabs.cc/tabs/h/horney_skelotons_with_antlers/why_dont_you_love_me_tab_ver_2.html ]
  I love you more than anything
  d d d d u   d d d d u   d d d d u   d d d d u   d d d d u
e-------------------------3-3-3-3-3-------------------------|
B-1-1-1-1-1---------------0-0-0-0-0---------------1-1-1-1-1-|
G-2-2-2-2-2---0-0-0-0-0---0-0-0-0-0---0-0-0-0-0---2-2-2-2-2-|
D-2-2-2-2-2---2-2-2-2-2---0-0-0-0-0---2-2-2-2-2---2-2-2-2-2-|
A-------------2-2-2-2-2---2-2-2-2-2---2-2-2-2-2-------------|
E-------------------------3-3-3-3-3-------------------------|


  why dont you love me fuckin a
  d d d d u   d d d d u   d d d d u   d d d d u   d d d d u
e-------------3-3-3-3-3---1-1-1-1-1---------------3-3-3-3-3-|
B-------------0-0-0-0-0---3-3-3-3-3---1-1-1-1-1---0-0-0-0-0-|
G-0-0-0-0-0---0-0-0-0-0---2-2-2-2-2---0-0-0-0-0---0-0-0-0-0-|
D-2-2-2-2-2---0-0-0-0-0---0-0-0-0-0---2-2-2-2-2---0-0-0-0-0-|
A-2-2-2-2-2---2-2-2-2-2---------------3-3-3-3-3---2-2-2-2-2-|
E-------------3-3-3-3-3---------------------------3-3-3-3-3-|

  I love you so fuckin much Jill I wish you would relize
  d d d d u   d d d d u   d d d d u    d d d d u   d d d d u
e-1-1-1-1-1---------------------------------------------------|
B-3-3-3-3-3---2-2-2-2-2---3-3-3-3-3/---5-5-5-5-5---4-4-4-4-4--|
G-2-2-2-2-2---2-2-2-2-2---4-4-4-4-4/---6-6-6-6-6---5-5-5-5-5--|
D-0-0-0-0-0---2-2-2-2-2---4-4-4-4-4/---6-6-6-6-6---5-5-5-5-5--|
A-------------0-0-0-0-0---2-2-2-2-2/---4-4-4-4-4---3-3-3-3-3--|
E-------------------------------------------------------------|

  how much I love you.
  d d d d u   d d d d u   d d d d u   d d d d u   d d d d u
e-------------------------------------3-3-3-3-3---1-1-1-1-1--|
B-6-6-6-6-6---2-2-2-2-2---1-1-1-1-1---0-0-0-0-0---3-3-3-3-3--|
G-7-7-7-7-7---2-2-2-2-2---0-0-0-0-0---0-0-0-0-0---2-2-2-2-2--|
D-7-7-7-7-7---2-2-2-2-2---2-2-2-2-2---0-0-0-0-0---0-0-0-0-0--|
A-5-5-5-5-5---0-0-0-0-0---3-3-3-3-3---2-2-2-2-2--------------|
E-------------------------------------3-3-3-3-3--------------|


e---------------------------------------------------------------|
B--------------------------------------------------12~~~--------|
G-------------------------------------------12-14--------14--12-|
D---------------12~~~----------------12/15----------------------|
A--------12-14---------14-12------------------------------------|
E-12/15-----------------------14-12-----------------------------|


e--------------------------------------------------------------|
B------------15b\/--15\/--15\/---13~~~--14p12-------14p12------|
G-----12--------------------------------------12h14------------|
D--14----------------------------------------------------------|
A--------------------------------------------------------------|
E--------------------------------------------------------------|
Comments