Horner James - Tania Chords & Tabs

 

Tania Chords & Tabs

Horner James Chords & Tabs

Version: 1 Type: Chords 0 ratings
1 star 2 stars 3 stars 4 stars 5 stars
comments

Tania Chords

Tania : Enemy at the Gate

E |---------------------|-----------------------|-----------------------|-----------------------|-----------------------|
B |----0------0--------|--1---0---------------|-----------------------|-----------------------|-----------------------|
G |--------0------0----|-----------2----0-----|----2--------2--------|---4----2-----0-------|----0-------0---------|
D |---------------------|-----------------------|--------4---------4---|-----------------4-----|--------2-------2-----|
A |---------------------|-----------------------|-----------------------|-----------------------|-----------------------|
E  |---------------------|-----------------------|-----------------------|-----------------------|-----------------------|

[ Tab from: http://www.guitartabs.cc/tabs/h/horner_james/tania_crd.html ]
E |---------------------|-----------------------|---------------------|         
B |---------------------|-----------------------|---------------------|
G |---2---0------------|-----------------------|------------0----2----|
D |-----------4---2----|---1------1-----4----|---2---4----------------|
A |---------------------|------2---------------|----------------------|
E |---------------------|-----------------------|---------------------|

Here are the Chords for the 8 frames,
Play the Chord at the Begining of every frame.

frame 1:   Em   X 2 2 X X X
frame 2:   C    X 3 2 X 1 X
frame 3:   Am   X X 2 2 1 X
frame 4:   ?    X X 4 2 X X
frame 5:   ?    X 4 2 X X X  
frame 6:   ?    X X 2 2 X X
frame 7:   ?    X 4 2 X X X
frame 8:   Em   X 2 2 X X X
Comments