Hopesfall - Icarus Chords & Tabs

 

Icarus Chords & Tabs

Hopesfall Chords & Tabs

Version: 1 Type: Bass Tab

Icarus Bass Tab

Icarus
Hopesfall


Intro x4
G|---------------------------------------|
D|---------------------------------------|
A|------------------------8-7------------|
E|---5-6666-----5-6666--8----------------|
B|-3--------3----------------------------|

Pre-Verse
G|-------------------|
D|-------------------|
A|-------------------|
E|-6666--------------|
B|-----------6666----|

Verse 1 (Watch out for the pause!)
G|----------5/7--------------------|-----------5/7/5------------|
D|----------5/7--------------------|-----------5/7/5------------|
A|---------------------------------|----------------------------|
E|---------------3-5--88-----------|----------------------------|
B|-33--66*66-------------66-55-----|--33--66X-------------------|
                                              
G|--------------------------------------------------------------|
D|--------------------------------------------------------------|
A|--------------------------------------------------------------|
E|-3-5--88------------------------------------------------------|
B|---------66-55------------------------------------------------|
[ Tab from: http://www.guitartabs.cc/tabs/h/hopesfall/icarus_btab.html ]
Verse 2 (no pause this time)
G|----------5/7--------------------|-----------5/7/5------------|
D|----------5/7--------------------|-----------5/7/5------------|
A|---------------------------------|----------------------------|
E|---------------3-5--88-----------|----------------------------|
B|-33--66*66-------------66-55-----|--33--66-66-----------------|
                                              
G|--------------------------------------------------------------|
D|--------------------------------------------------------------|
A|--------------------------------------------------------------|
E|-3-5--88------------------------------------------------------|
B|---------66-55------------------------------------------------|

Pre-Chorus
G|--------------------------------------------------------------|
D|--------------------------------------------------------------|
A|--------------------------------------------------------------|
E|-----55555-----55555-----55555--888--3333---------------------|
B|-666-------666-------666--------------------------------------|

(Let the Guitar come in first)                                                        
G|----------------------------------------------|
D|----------------------------------------------|
A|----------------------------------------------|
E|-6666666-6666666-----------------3555555------|
B|-----------------666666--3333333--------------|

Chorus x2 
G|----------------------------------------------|
D|----------------------------------------------|
A|----------------------------------------------|
E|-6666666-6666666-----------------3555555------|
B|-----------------666666--3333333--------------|

Intro x4

Bridge (watch your timing)
G|----------------------------|
D|----------------------------|
A|----------------------------|
E|-66/---66/---66/---66/--33/-|
B|----------------------------|

Pre-Chorus

Chorus x2

Guitar Bridge 

Outro (fade out) 
G|------------------------------------|
D|------------------------------------|
A|------------------------------------| 
E|-66666----------35-65-356-----------|
B|--------66-3333---------------------|