Hopesfall - April Left With Silence Chords & Tabs

 

April Left With Silence Chords & Tabs

Hopesfall Chords & Tabs

Version: 2 Type: Tab 0 ratings
1 star 2 stars 3 stars 4 stars 5 stars
comments

April Left With Silence Tab

--------------------------------------------------
       HOPESFALL - APRIL LEFT WITH SILENCE
--------------------------------------------------


GUITAR 1: (4X)
e|--------------------------------------------------------------------------------|
B|--------------------------------------------------------------------------------|
G|-------------------------------------------------------------------9-8----------|
D|---666-666-999-666--444-777-666-444---2-2-2-4--2-2-2-4--2-2-2-4--------9--------|
A|---666-777-777-777--444-444-444-777---2-2-2-2--2-2-2-2--2-2-2-2-----------------|
D|---666-667-666-666--444-444-444-444---2-2-2-2--2-2-2-2--2-2-2-2-----------------|

GUITAR 2: (4X)
e|------------------------------------------------------------------------------------|
B|-------------------------------------------------------------------5-5---4---4------|
G|-----------------------------------------------------------------6-----6---9---4----|
D|---666-666-999-666--444-777-666-444---2-2-2-4--2-2-2-4--2-2-2-4---------------------|
A|---666-777-777-777--444-444-444-777---2-2-2-2--2-2-2-2--2-2-2-2---------------------|
D|---666-667-666-666--444-444-444-444---2-2-2-2--2-2-2-2--2-2-2-2---------------------|

GUITAR 1: 
e|------------------|
B|------------------|
G|---------6--------|
D|---------6--------|
A|---------6--------|
D|------------------|
[ Tab from: http://www.guitartabs.cc/tabs/h/hopesfall/april_left_with_silence_tab_ver_2.html ]
GUITAR 2:
e|------------------|
B|---9--------8-----|
G|--------9---------|
D|------------------|
A|------------------|
D|------------------|

GUITARS 1&2:
e|---x--x--x--x-----|
B|---x--x--x--x-----|
G|---8--8--8--8-----|
D|---6--6--6--6-----|
A|---6--6--6--6-----|
D|---6--6--6--6-----|

GUITARS 1&2:
e|------------------|
B|------------------|
G|---8--8--9--11----|
D|---9--9--9--9-----|
A|---7--7--7--7-----|
D|------------------| 

GUITARS 1&2:
e|------------------------------|
B|------------------------------|
G|---9--6--9--11---9--------8---|
D|---x--x--x--x---------9-------|
A|---7--4--7--9-----------------|
D|------------------------------|

GUITARS 1&2:
e|------------------------------|
B|------------------------------|
G|---11---13-------9--------8---|
D|---x----x-------------9-------|
A|---9----11--------------------|
D|------------------------------|

GUITARS 1&2:
e|-----------------------------|
B|-----------------------------|
G|---13---6---4---8---6---11---|
D|---x----x---x---x---x---x----|
A|---11---4---2---6---4---9----|
D|-----------------------------|

GUITAR 1:
e|---------------|
B|---------------|
G|----9----8-----|
D|----x----x-----|
A|----7----6-----|
D|---------------|

GUITAR 2:
e|---------------|
B|----12---------|
G|----x----------|
D|----9----------|
A|---------------|
D|---------------|

Outro:
e|------------------------|
B|---9--------------------|
G|------9--8-----8--9-----|
D|------------9-----------|
A|------------------------|
D|------------------------|

Need some help on this tab, send me comments or corrections... please: davelo03@yahoo.com
Comments