Hope Of The States - Various Chords & Tabs

 

Various Chords & Tabs

Hope Of The States Chords & Tabs

Version: 1 Type: Tab 0 ratings
1 star 2 stars 3 stars 4 stars 5 stars
comments

Various Tab

   
##################################################################################
# This file is the author's own work and represents their interpretation of the  #
# song. You may only use this file for private study, scholarship, or research.  #
##################################################################################

Static In The Cities

e-----------------------------------------------------------------------------------------------
B-----------------------------------------------------------------------------------------------
G------------------------------------5--4-------------------12--11------------------11---12---14
D-------12----14----12----------7-------7----7-------10-----------10-----10--9--9--9-----9------
A----14----14----14----14----7------------7------10-------------------10------------------------
E-12--------------------------5--------------------8--------------------------------------------




e----------------------------------------------------------------------------------------------------------------------------------------------------------
b-12--12-12-15-15-12-12--12-12-10-10-12-12--12-12-15-15-12-12-10-10-8-8-7-7-5-12--12-12-15-15-12-12--12-12-10-10-12-12--12-12-15-15-12-12-10-10-8-8-7-7-10-  x4

e-0---0--0--0--0--0--0---0--0--0--0--0--0---0--0--0--0--0--0--0--0--0-0-0-0-0--0--0--0--0--0--0--0---0--0--0--0--0--0---0--0--0--0--0--0--0--0--0-0-0-0-0--
b-12--12-12-15-15-12-12--12-12-10-10-12-12--12-12-15-15-12-12-10-10-8-8-7-7-5-12--12-12-15-15-12-12--12-12-10-10-12-12--12-12-15-15-12-12-10-10-8-8-7-7-10-  x4

strumming bit after loud bit 6mins into song
C_______________Gm



*****************************************************************************************************************************************************************

*****************************************************************************************************************************************************************


The Red, The White, The Black, The Blue 

Intro-| E | Cadd9 C | 


e--------------------------------- 
b--------------------------------- 
g-2-2-2-2-2-2-2-2-2-2-2-2-2-2-2-2- 
d-0-0-0-0-3-0-0-0-3-0-0-0-3-0-0-0- 
a--------------------------------- 
e--------------------------------- 
[ Tab from: http://www.guitartabs.cc/tabs/h/hope_of_the_states/various_tab.html ]
e--------------------------------- 
b--------------------------------- 
g-4-4-4-4-4-4-4-4-4-4-4-4-4-4-4-4- 
d-0-0-0-0-5-0-0-0-5-0-0-0-5-0-0-0- 
a--------------------------------- 
e--------------------------------- 

e--------------------------------- 
b--------------------------------- 
g-6-6-6-6-6-6-6-6-6-6-6-6-6-6-6-6- 
d-0-0-0-0-7-0-0-0-7-0-0-0-7-0-0-0- 
a--------------------------------- 
e--------------------------------- 

e--------------------------------- 
b--------------------------------- 
g-7-7-7-7-7-7-7-7-7-7-7-7-7-7-7-7- 
d-0-0-0-0-9-0-0-0-9-0-0-0-9-0-0-0- Let the last note ring 
a--------------------------------- 
e--------------------------------- 

| F | Am | C | E | 
the red white and the blue has always been what led you 
if you dont do something they'll steal it all from under you all from under 
you


*****************************************************************************************************************************************************************

*****************************************************************************************************************************************************************

Thee Seventies Song 

e-----7-------7-------7- 
b---8-------7-------7--- 
g-9-------8-------7----- 
d-----------------------  x4 
a----------------------- 
e----------------------- 

e-----7----------7---------7--- 
b---8---8------7---7-----7----- 
g-9---------8----------7-----7- 
d------------------------------  x4 
a------------------------------ 
e------------------------------ 


Corrections email InAStoryTold@hotmail.com


*****************************************************************************************************************************************************************

******************************************************************************************************************************************************************


George Washington

Intro
e-----------------------------------------------------
B-----------------------------------------------------
G-7-7-7-9---0-11-11-11-9-7-0-4-4-4-7---2-2-2-0--------
D----------------------------------------------------- x2
A-----------------------------------------------------
E-----------------------------------------------------


G----------------------------------------------------------------------------9-11
D----------------9-------------------9----9-12-9-12-9-12-9----9-12-9-12-9-12-----
A-9-12-9-12-9-12---12-9-12-9-12-9-12---12------------------12-------------------- 
E--------------------------------------------------------------------------------

Corrections are welcome InAStoryTold@hotmail.com
Comments