Hope Of The States - The Black Amnesias Chords & Tabs

 

The Black Amnesias Chords & Tabs

Hope Of The States Chords & Tabs

Version: 4 Type: Tab 0 ratings
1 star 2 stars 3 stars 4 stars 5 stars
comments

The Black Amnesias Tab

I found this song sumwhere driftin' on the web and saw that it was a differnt version
to already on here. Anyway....I saw them play this last week at the wedgewood
rooms,Portsmouth, and it was the best gig ive bin 2 by far!!It was absolutly amazing!
Anyway...I hope u like the tab..i happen to think it works quite well so enjoy!! :D

Intro:
----------0---------------0-----------------------------------------|
------6-------6-------6-------6------------6---------------6--------|
----9---9---9---9---9---9---9---9------9-------9-------9-------9----|
--7---------------7------------------7---7---7---7---7---7---7---7--|
-----------------------------------8---------------8----------------|
--------------------------------------------------------------------|

--------------------------------------------------------------------|
----------0---------------0---------------1---1-----------0---0-----|
------2-------2-------2-------2-------2---------2-----2-------------|
----3---3---3---3---3---3---3---3---2---2---2-------2---2---2-------|
--5---------------5---------------0---------------0-----------------|
--0-----------------------------------------------------------------|

------------0---------------0----------------0-------0-------0---0--|
--------0-------0-------0-------0--------0-------0-------0-------0--|
------2---2---2-------4---4---4--------6---6---6---6---6---6---6----|
--2s3-------------3s5--------------5s7------------------------------|
--------------------------------------------------------------------|
--------------------------------------------------------------------|
[ Tab from: http://www.guitartabs.cc/tabs/h/hope_of_the_states/the_black_amnesias_tab_ver_4.html ]
Heavy part:
--1------------------------------------------------------------|im realy sory
--3------------------------------------------------------------|but i dont no
--2------10--------7------9------7-----10---------7--------9---|how many times
--0-------8--------5------7------0------8---------5--------7---|u hav to play
--0-------8--------5------7------0------8---------5--------7---|each part but
--0-------8--------5------7------0------8---------5--------7---|its easy to do

Acoustic:
--0--0-------------0--0-------------[0]----------------[0]----------|
--6--6-------------6--6--------------6--6---------------6--6--------|
--9--9-------------9--9--------------9--9---------------9--9--------|
--7--7-------------7--7--------------7--7---------------7--7--------|
-------------------------------------8--8---------------8--8--------|
--------------------------------------------------------------------|

Outro [Distortion]
--------------------------------------------------------------------|
--------------------------------------------------------------------|
--------------------------------------------------------------------|
--7-7-7-7-7-7-7-9-9-9-9-9-9-9-10-10-10-10-10-10-12-12-12-12-12-9-9--|
--0-0-0-0-0-0-0-0-0-0-0-0-0-0--0--0--0--0--0--0--0--0--0--0--0-0-0--|
--------------------------------------------------------------------|

Basically thats jus the main riffs but they're not in order so u'll hav to do that!!(its 
hard thou)lol.

Anyway this realy is an amazing song!!It's 1 of my favs on the album!! And if u eva get
chance 2 c them live i suggest u book tix straight away 'cos u wont regret it!They're
gr8 guys as well--soo funny!!!
Hope u like! Feel free 2 leave comments or rate...my e-mail addy is
in_your_world@hotmail.co.uk or rhcp_3454@hotmail.com but harldy eva use it so u'll
hav beta luck wiv inyourworld
Comments