Hope Of The States - The Black Amnesias Chords & Tabs

 

The Black Amnesias Chords & Tabs

Hope Of The States Chords & Tabs

Version: 2 Type: Tab 0 ratings
1 star 2 stars 3 stars 4 stars 5 stars
comments

The Black Amnesias Tab

Great new soaring band from chichester and warrington
this is the starts of the instrumental song and the first song on thier album The Lost Riots
E--------------------------|
B------6--------6----------|
G----9---9----9---9--------| Let each note ring
D-7---------7--------------|
A--------------------------|
E--------------------------|
e--------------0-----------|
B--------6----------6------|
G-----9----9-----9---9-----|
D--7-----------------------|
A--------------------------|
E--------------------------|

Repeat this until:
[ Tab from: http://www.guitartabs.cc/tabs/h/hope_of_the_states/the_black_amnesias_tab_ver_2.html ]
E---12---10---5----12---13---12---10---5---5/1---1/3---3/5---5/7---7/5---5/12--|
B------------------------------------------------------------------------------|
G------------------------------------------------------------------------------|
D------------------------------------------------------------------------------|
A------------------------------------------------------------------------------|
E------------------------------------------------------------------------------|

You shouldn't have to play that last note (12) if you have enough (controlled) 
on and if you slide well......use a little bit of vibrato if the note starts to die before it 
the slide from 5 to 12 should sound like a DART!!!

By the hope of the states forum
Comments