Hope Of The States - Enemies/friends Chords & Tabs

 

Enemies/friends Chords & Tabs

Hope Of The States Chords & Tabs

Version: 1 Type: Tab 0 ratings
1 star 2 stars 3 stars 4 stars 5 stars
comments

Enemies/friends Tab

##################################################################################
# This file is the author's own work and represents their interpretation of the  #
# song. You may only use this file for private study, scholarship, or research.  #
##################################################################################

Hope of the States - Enemies/Friends

Guitar 1

e------------------------------------------------------
B-----------1----------1-------------1-----------1-----
G------2------2----2-----2------2------2----2-----2----
D------------------------------------------------------
A---3------------3------------3------------3-----------
E------------------------------------------------------

e------------------------------------------------------
B-----------1----------1-------------1-----------1-----
G------0------0----0-----0------0------0----0-----0----
D------------------------------------------------------
A---3------------3------------3------------3-----------
E------------------------------------------------------

e------------------------------------------------------
B---------1-----------1---------1---------1------------
G-----------2-----------2---------2---------2----------
D-------3-----------3---------3---------3--------------
A-----3----------3----------3---------3----------------
E------------------------------------------------------
[ Tab from: http://www.guitartabs.cc/tabs/h/hope_of_the_states/enemiesfriends_tab.html ]
e--------------------------------------------------
B---------1-----------1-----------1---------1------
G-----------2-----------2------0----0-----0----0---
D-------3-----------3------------------------------
A-----3----------3----------3---------3------------
E--------------------------------------------------

Guitar 2

e-----7---7---7---8p7---7---7---7--8-7----12----12----10-
B---8---8---8----------8---8---8--------13----13---13----
G--------------------------------------------------------
D--------------------------------------------------------
A--------------------------------------------------------
E--------------------------------------------------------

e------12---10---0---------------------------------------
B---13----13---13-----5--0--1--0--3--0--5--0--0--1--0----
G-----------------------------------------------------0--
D--------------------------------------------------------
A--------------------------------------------------------
E--------------------------------------------------------


e------------------------------------------------------
B---1--1--1--3--1--0--1--0-----------------------------
G-2--2--2--2-2--2--2--2--2--0--------------------------
D------------------------------------------------------
A------------------------------------------------------
E------------------------------------------------------



Corrections are welcome InAStoryTold@hotmail.com

Comments