Hope Of The States - A Heart Can Stop A Bullet Chords & Tabs

 

A Heart Can Stop A Bullet Chords & Tabs

Hope Of The States Chords & Tabs

Version: 1 Type: Tab 0 ratings
1 star 2 stars 3 stars 4 stars 5 stars
comments

A Heart Can Stop A Bullet Tab

A Heart Can Stop A Bullet 

Intro riff, 2nd guitar does atmospheric sounds in background using a slide, reverb and delay. Possibly ebow 
e -------------------------------------------------------------------------------------------------------------------------- 
B -------------------------------------------------------------------------------------------------------------------------- 
G --------------6----------6-----------------------6---------------------4------6-------7-------------------6----------- 
D --------7----------7-----------7----------6-----------------------4-------4------4-------4----------6--------------- 
A --9-----------------------------------8-----------------------5----------------------------------8--------------------- 
E -------------------------------------------------------------------------------------------------------------------------- 

1st Part Main riff 
e--------------------------------------------------------------------------------------------------------------------------- 
B-------------------------------------------------------------------------------------------------------------------------- 
G------------6-------9--------6-----------------6------7------6------------4-----6------------6-----7-----6---------- 
D--------7-------7-------7--------7--------6------ 6------6------6-----4-----4-----4-----6------6------6------------ 
A---9-----------------------------------8------------------------------5-----------------8------------------------------- 
E--------------------------------------------------------------------------------------------------------------------------- 

End of main riff 
e--------------------------------------------------------------------------------------------------------------------------- 
B-----------------------------------------------------6-------9-----------7-----10------7----------9----10-----9------ 
G-------------6--------9---------6---------------------------------------------------------------------------------------- 
D--------7--------7---------7--------7----------6------6------------7------7-------7---------10----10----10----10-- 
A---9---------------------------------------8---------------------9-------------------------11--------------------------- 
E--------------------------------------------------------------------------------------------------------------------------- 

Violin starts on its own. Play this after each riff of the violin 
e--------------------------------------------------------------------------------------------------------------------------------------------- 
B---9-----9-----9-----or occasionally ------9-----10-----9----------------------------------------------------------------------------- 
G-------------------------------------------------------------------------------------------------------------------------------------------- 
D-------------------------------------------------------------------------------------------------------------------------------------------- 
A-------------------------------------------------------------------------------------------------------------------------------------------- 
E-------------------------------------------------------------------------------------------------------------------------------------------- 
[ Tab from: http://www.guitartabs.cc/tabs/h/hope_of_the_states/a_heart_can_stop_a_bullet_tab.html ]
Then the quiet bit 
e--------------------------------------------------------------------------------------------------------------------------------------------- 
B-------9---9---9---------9---9---9----------9----9---9-----------9----9----9---------------------------------------------------------- 
G-------------------------------------------------------------------------------------------------------------------------------------------- 
D-------------------------------------------------------------------------------------------------------------------------------------------- 
A--7------------------7------------------11------------------11--------------------------------------------------------------------------- 
E-------------------------------------------------------------------------------------------------------------------------------------------- 

Mike’s guitar- distortion tremolo picking 
e--------------------------------------------------------------------------------------------------------------------------------------------- 
B--12--10--9--7--12--10--9--7-------------------------------------10--9--12--10--14--16--17--19--17--------------------------- 
G-------------------------------------8--9--11--13--8--9--11--13----------------------------------------------------------------------- 
D-------------------------------------------------------------------------------------------------------------------------------------------- 
A-------------------------------------------------------------------------------------------------------------------------------------------- 
E-------------------------------------------------------------------------------------------------------------------------------------------- 

2nd part quiet bit 
e--17----15----13----10--8--6--5----5--------------------------------------------------------------------------------------------------- 
B--18-----------------------------------6--------------------------------------------------------------------------------------------------- 
G-------------------------------------------------------------------------------------------------------------------------------------------- 
D-------------------------------------------------------------------------------------------------------------------------------------------- 
A-------------------------------------------------------------------------------------------------------------------------------------------- 
E-------------------------------------------------------------------------------------------------------------------------------------------- 

Tremolo picked distorted ending 
e--------------------------------------------------------------------------------------------------------------------------------------------- 
B-----------------13---------------13--15--13--15--13----13----15----17----18----20---18----------------------------------------- 
G--10--12--14------10--12--14---------------------------------------------------------------------------------------------------------- 
D-------------------------------------------------------------------------------------------------------------------------------------------- 
A-------------------------------------------------------------------------------------------------------------------------------------------- 
E-------------------------------------------------------------------------------------------------------------------------------------------- 

Occasionally last run is played by sliding up to the notes 
e--------------------------------------------------------------------------------------------------------------------------------------------- 
B--/13---/15---/17---/18---/20---/18---------------------------------------------------------------------------------------------------- 
G-------------------------------------------------------------------------------------------------------------------------------------------- 
D-------------------------------------------------------------------------------------------------------------------------------------------- 
A-------------------------------------------------------------------------------------------------------------------------------------------- 
E-------------------------------------------------------------------------------------------------------------------------------------------- 
Comments