Hootie And The Blowfish - Use Me Chords & Tabs

 

Use Me Chords & Tabs

Hootie And The Blowfish Chords & Tabs

Version: 1 Type: Bass Tab 0 ratings
1 star 2 stars 3 stars 4 stars 5 stars
comments

Use Me Bass Tab

Band:hootie and the blowfish
Song:Use Me (Live)
Tabbed By - Josh Chupp (joshc911@yahoo.com)
[ Tab from: http://www.guitartabs.cc/tabs/h/hootie_and_the_blowfish/use_me_btab.html ]
Intro 0:10 (wait for drum intro)
E---------0-4-5-7-----------------------------|
A---------------------------------------------|
D---------------------------------------------|  1x
G---------------------------------------------|

Main Riff (repeat as nessary)
E--------------------------5---4-5-7----------|
A-------5h7---5h7----5--7---------------------|
D----------5------5---------------------------|
G---------------------------------------------|

Thats' all listen for timing and soforth
Comments