Hootie And The Blowfish - Time Chords & Tabs

 

Time Chords & Tabs

Hootie And The Blowfish Chords & Tabs

Version: 1 Type: Tab 0 ratings
1 star 2 stars 3 stars 4 stars 5 stars
comments

Time Tab

   
##################################################################################
# This file is the author's own work and represents their interpretation of the  #
# song. You may only use this file for private study, scholarship, or research.  #
##################################################################################

@SONG: * TIME
(tabbed by Paul D ,
 randell@heinous.music.uiowa.edu
 and Paul Hutchinson )

(intro): |D  Em  |  x4


Chords: D-xx0232  Em-022033(technically Em7)  A-x02220  
        G-320033  Asus-x02230  Bm-x24432  Asus2-x02200
................

The following is the riff played (twice at the start as an intro, and then
throughout the verse) by two semi-clean electric guitars 
  +     +     +     +    +     +     +     +    
|-------------------3-----|-------------------3-----|
|-------3--------3-----3--|-------3--------3--------|
|----2--------0-----------|----2--------0-----------|
|-0--------0h2------------|-0--------0h2------------|
|-------------------------|-------------------------|
|-------------------------|-------------------------|

The bridge ("Can you teach me about tomorrow..") goes along these lines
  +   +   +   +    +   +   +   +       
|-----------------|-----3---3-----3-|
|---------0-----0-|---3-------3-----|
|-----2-----2-----|-------0-----0---| 
|---2---2---------|-----------------|
|-0-----------0---|-----------------|
|-----------------|-3---------------|

Then the main riff again, followed by
  +   +   +   +    +   +   +   +       
|---------3-------|-----------------|
|-------3---3-----|-3-----2---------|
|-----0-------0---|---2-------------|
|-----------------|-----------------|
|-----------------|-----0-----------|
|-0---------------|-----------------|
[ Tab from: http://www.guitartabs.cc/tabs/h/hootie_and_the_blowfish/time_tab.html ]
At this point an acoustic guitar enters strumming the chords. From this 
point on, one of the electrics plays the riff during the verses, the part
shown above during the bridges, and strums the chords during the choruses 
("Time is wasting..") and solo. The second electric plays the occasional 
power chord during verses and bridges and strums along to the choruses.
It also takes the solo:
  +   +   +   +    +       +   +   +     +   +   +   +    
|-----------------|---------------------|-----------------|
|-----------------|---------------------|-----------------|
|/11-7-/9---------|-------7--/11--------|/11-7-/9---------|
|-----------7---7-|-5h7/9---------------|-----------7-----|
|-----------------|---------------------|-----------------|
|-----------------|---------------------|-----------------|

  +       +       +  +    +       +          +   +
|-10---10-----10--------|-12------12-----------------------|
|-10---10-8---8---------15b17----b17r15-12-----------------|
|-7-----------7---------|--------------------14~~~---12h14-|
|-----------------------|----------------------------------|
|-----------------------|----------------------------------|
|-----------------------|----------------------------------|

  +         +        +      +     +     +       +       +           +
|-------------------------------|---------------------------------|-----
|-15--12h15-12------------------|---------------------------------|-10~~
|---14--------14p12--12h14~~~~--|---------------7p4-7/9-9/11-11/12|-----
|------------------14-----------|-----5-7p5-5h7-------------------|-----
|-------------------------------|---/7----------------------------|-----
|-------------------------------|---------------------------------|-----



Solo: |Bm  A  |G     |Bm  A  |D  G  |A  G  |A  G  |A  G  |

At the end of the last chorus, the second guitar drops out; the acoustic
and the first electric play the main riff in unison to the end, finishing
with an open D chord.
..............
Comments