Hootie And The Blowfish - Running From An Angel Chords & Tabs

 

Running From An Angel Chords & Tabs

Hootie And The Blowfish Chords & Tabs

Version: 1 Type: Tab 0 ratings
1 star 2 stars 3 stars 4 stars 5 stars
comments

Running From An Angel Tab

Hootie and the Blowfish
Cracked Rear View
"Running From An Angel"

Intro:

e ------7-----12--9--------7-----9-----------
b -7/9-----9----------7/9-----9------9---7---
g -------------------------------------------
d -------------------------------------------
a -------------------------------------------
e -------------------------------------------


[ Tab from: http://www.guitartabs.cc/tabs/h/hootie_and_the_blowfish/running_from_an_angel_tab.html ]
e ------7-----12--9---12---9---7---9----------
b -7/9-----9---------------------------7----5-
g --------------------------------------------
d --------------------------------------------
a --------------------------------------------
e --------------------------------------------


you play all that a couple times during the intro and throughout the
song.  you just listen to it to get the timing down.

Comments