Hootie And The Blowfish - Running From An Angel Chords & Tabs

 

Running From An Angel Chords & Tabs

Hootie And The Blowfish Chords & Tabs

Version: 2 Type: Bass Tab 0 ratings
1 star 2 stars 3 stars 4 stars 5 stars
comments

Running From An Angel Bass Tab

"running from an angel" by hootie and the blowfish
tabbed by pete   (pistolpete11228@aol.com)

good song by a good band

main part:
g/----------------------------------------------------------------------------
d/-2-2----------2-2-------------2-2--------------2-2-------2--------------
a/-------4-4---------4-4--2-----------4-4--------------2-2-----------------
e/----------------------------------------------------------------------------

jazzed up main part:
[ Tab from: http://www.guitartabs.cc/tabs/h/hootie_and_the_blowfish/running_from_an_angel_btab_ver_2.html ]
g/----------------------------------------------------------------------------
d/-2-2----------2-2-------------2-2--------------2-2------------------2----
a/-------4-4---------4-4--2-----------4-4--------------2-2-2-2-2----------
e/----------------------------------------------------------------------------

chorus:
g/---------------------------------------
d/---------------------------------------
a/--------------------------0-0-0-0-0-0
e/---3-3-3-3-3-3-3-3-3----------------

thats it!.........jazz it up with some pops and slaps or some hammer ons

**********************************************
thanks to the hard times we notice the sweet nector
by dave matthews 
**********************************************
      pistolpete
Comments