Hootie And The Blowfish - Only Wanna Be With You Chords & Tabs

 

Only Wanna Be With You Chords & Tabs

Hootie And The Blowfish Chords & Tabs

Version: 1 Type: Tab 0 ratings
1 star 2 stars 3 stars 4 stars 5 stars
comments

Only Wanna Be With You Tab

   
##################################################################################
# This file is the author's own work and represents their interpretation of the  #
# song. You may only use this file for private study, scholarship, or research.  #
##################################################################################

@SONG: * ONLY WANNA BE WITH YOU
(tabbed by Steve Vetter 
 and Paul Hutchinson )

NB Capo 2nd fret

Intro: |E   Aadd6 |E   Aadd6 |E   Aadd6 |Bsus4     |
       |E   Aadd6 |E   Aadd6 |E   Aadd6 |E   Aadd6 |


Chords: E-022100  Aadd6-x04200  Bsus-x24400  F#m7sus-244200  A-x02220

NB: Note that the bass guitar treats the Aadd6 chords as B
...............
**Dylan as in Bob whose borrowed line from Idiot Wind appears in this 
song. They credit Bob in the liner notes for the first album Kootchypop.  
They also refer to Tangled up in Blue from the same album.  Curiously enough,
they also are probably reffering to Dillon Fence a band from the same area, 
which has had some regional success.  And you thought you were just getting 
a CRD file 
;-)  -sjv
................

There's a ton of guitars on this song (maybe a mandolin too) and it's 
very difficult to audibly separate them. Just strum along. However, there is 
a fill used at the points of the song marked with an asterisk *:

  +   +   +   +     +   +   +   +
|-----------------|-----------------|
|-----------------|-----------------|
|-----------------|-----------------|
|-------2---4---4-|/6-4-2-4---2-----|
|---2-4-----------|-----------------|
|-----------------|-----------------|
[ Tab from: http://www.guitartabs.cc/tabs/h/hootie_and_the_blowfish/only_wanna_be_with_you_tab.html ]
This is doubled an octave up - you can do this on one guitar with an octave
pedal or a pitch shifter set an octave up.

This is the solo. Note that for the first few bars, since it is played 
close 
to the capo, I've given fret positions relative to the capo.
  +       +       +       +         +       +       +       +
|-4p0---7p0---2p0---7p0---4p0-----|-2p0---7p0---5p0---4p0---2p0-0---|
|-----0-----0-----0-----0-----0---|-----0-----0-----0-----0-----0---|
|---------------------------------|---------------------------------|
|---------------------------------|---------------------------------|
|---------------------------------|---------------------------------|
|---------------------------------|---------------------------------|

Play that again, and then go on to...
  +   +   +   +     +   +   +   +
|-----------------|-----------------|
|-----------------|--5--7--9~~~~~~~~|
|/6--4------------|-----------------|
|-------6---4---4-|-6-/7-/9---------|
|-------------7---|-----------------|
|-----------------|-----------------|

Since the last 2 bars are played further up the neck, I've given the 
actual 
fret positions (ie relative to the nut)
(Hold bend)
  +       +           +        +           +          +        +    +
|-------14-------------------------------|--------------------------------|
|----------------------------------------|--------------------------------|
13b15-----15r13-11---------11--11-13b15--|b15r13p11------------11~~~~~~~~-|
|---------------------11h13--13----------|---------13-11--11h13-----------|
|----------------------------------------|--------------13----------------|
|----------------------------------------|--------------------------------|
..............




  
Comments