Hootie And The Blowfish - Not Even The Trees Chords & Tabs

 

Not Even The Trees Chords & Tabs

Hootie And The Blowfish Chords & Tabs

Version: 1 Type: Bass Tab 0 ratings
1 star 2 stars 3 stars 4 stars 5 stars
comments

Not Even The Trees Bass Tab

Band - Hootie And The Blowfish
Song - Not Even The Trees

Intro
G|--------|---------|------|------|----|--------------|
D|-12h----|--11-----|------|------|-0--|------12----12|
A|--------|---------|------|------|----|12-14----14---|
E|--------|---------|-7----|--5---|----|--------------|

Verse 1
G|--/11--14-11-----|---------------|--/11---------------|---------------|
D|--------------14-|--------12---12|-------14-----------|-------12----12|
A|-----------------|-12-14-----14--|----------/14b(1/4)-|-12-14----14---| X3
E|-----------------|---------------|--------------------|---------------|
			                                
G|--/11--14-11-----|---------------|--/11---------------|----------------|
D|--------------14-|--------12---12|-------14-----------|-------12-------|
A|-----------------|-12-14-----14--|----------/14b(1/4)-|-12-14----14-12-|
E|-----------------|---------------|--------------------|----------------|

Chorus 1
G|---9h11-|------------|-----|------------|----------------|----------------|
D|--------|------------|-----|------------|----------------|----------------|
A|--------|------------|-----|------5-----|-5-------5---7b-|--5-----5----7b-|
E|-7------|-5----5p0-2-|-3---|--5-7---7-5-|----5-7----7----|----5-7---7-----|

G|---------------|-----------------|----------------|
D|---------------|-----------------|----------------|
A|-5-----5----7b-|-5--------5---7b-|--5-----5----7b-|
E|----5-7---7----|------5-7---7---|----5-7---7------|

G|--------------|---------|-------------|-----------------------|
D|--------------|------9--|-------------|--------------12----12-|
A|-5-----5------|---------|------/9--7--|---------12-14---14----|
E|---5-7----7-5-|-7-(7)---|-7-5---------|-2-02-3----------------| 

Verse 2
G|--/11--14-11-----|---------------|--/11---------------|---------------|
D|--------------14-|--------12---12|-------14-----------|-------12----12|
A|-----------------|-12-14-----14--|----------/14b(1/4)-|-12-14----14---| X3
E|-----------------|---------------|--------------------|---------------|
				                   
G|--/11--14-11-----|---------------|--/11---------------|----------------|
D|--------------14-|--------12---12|-------14-----------|-------12-------|
A|-----------------|-12-14-----14--|----------/14b(1/4)-|-12-14----14-12-|
E|-----------------|---------------|--------------------|----------------|

Chorus 2
G|---9h11|------------|-----|------------|----------------|----------------|
D|-------|------------|-----|------------|----------------|----------------|
A|-------|------------|-----|------5-----|-5-------5---7b-|--5-----5----7b-|
E|-7-----|-5----5p0-2-|-3---|--5-7---7-5-|----5-7----7----|----5-7---7-----|
[ Tab from: http://www.guitartabs.cc/tabs/h/hootie_and_the_blowfish/not_even_the_trees_btab.html ]
G|---------------|-----------------|----------------|
D|---------------|-----------------|----------------|
A|-5-----5----7b-|-5--------5--7b-|--5-----5----7b--|
E|----5-7---7----|------5-7---7---|----5-7---7------|

G|--------------|---------|-------------|----------------|
D|--------------|------9--|-------------|----------------|
A|-5-----5------|-?-------|------/9--7--|----------------|
E|---5-7----7-5-|-7-(7)---|-7-5---------|-2-02-3---3-2-0-|

interlude
G|----------|------------|--------------|----------|----------------|------------|
D|---------7|-/9-9-9-9-9\|-7-7---/7-54--|-----9-9--|----------------|------/7-7--|
A|-----7-9--|------------|-------------7|----------|----------10-9--|------------|
E|-0--------|------------|-----5--------|-7-7------|-2-0-2-3--------|-/5-5-------|

G|--------------|----|---------------|
D|--------------|----|------12----12-|
A|------/12\----|----|-12-14----14---|
E|-5-5----------|----|---------------|

Final verse
G|--/11--14-11-----|---------------|--/11---------------|---------------|
D|--------------14-|--------12---12|-------14-----------|-------12----12|
A|-----------------|-12-14-----14--|----------/14b(1/4)-|-12-14----14---| X3
E|-----------------|---------------|--------------------|---------------|
        		                                             
G|--/11--14-11-----|---------------|--/11---------------|----------------|
D|--------------14-|--------12---12|-------14-----------|-------12-------|
A|-----------------|-12-14-----14--|----------/14b(1/4)-|-12-14----14-12-|
E|-----------------|---------------|--------------------|----------------|

Final chorus
G|---9h11p9|------------|-----|------------|----------------|----------------|
D|---------|------------|-----|------------|----------------|----------------|
A|---------|------------|-----|------5-----|-5-------5---7b-|--5-----5----7b-|
E|-7-------|-5----5p0-2-|-3---|--5-7---7-5-|----5-7----7----|----5-7---7-----|

G|---------------|-----------------|----------------|
D|---------------|-----------------|----------------|
A|-5-----5----7b-|-5--------5---7b-|--5-----5----7b-|
E|----5-7---7----|------5-7---7----|----5-7---7-----|

G|--------------|---------|-------------|------------------------|
D|--------------|------9--|-------------|--------------12----12--|
A|-5-----5------|---------|------/9--7--|--------12-14----14-----|
E|---5-7----7-5-|-7-(7)---|-7-5---------|-2-02-3-----------------|

G|--/11--14-11-----|---------------|--/11---------------|---------------|
D|--------------14-|--------12---12|-------14-----------|-------12----12|
A|-----------------|-12-14-----14--|----------/14b(1/4)-|-12-14----14---| X4
E|-----------------|---------------|--------------------|---------------|
					      
G|-/11--|
D|------|
A|------|
E|------|
Comments