Hootie And The Blowfish - Look Away - Riff Chords & Tabs

 

Look Away - Riff Chords & Tabs

Hootie And The Blowfish Chords & Tabs

Version: 1 Type: Tab 0 ratings
1 star 2 stars 3 stars 4 stars 5 stars
comments

Look Away - Riff Tab

   
##################################################################################
# This file is the author's own work and represents their interpretation of the  #
# song. You may only use this file for private study, scholarship, or research.  #
##################################################################################

@SONG: * LOOK AWAY
(tabbed by randell@heinous.music.uiowa.edu
 and Paul Hutchinson )
[ Tab from: http://www.guitartabs.cc/tabs/h/hootie_and_the_blowfish/look_away_riff_tab.html ]
The following is the main riff played by both electric and acoustic guitar
(chords shown are for the benefit of bass/keyboard players)
  Em  G/D Cadd9     Gadd9 Cadd9       Em  G/D Cadd9     G     C
  +   +   +   +     +   +   +   +     +   +   +   +     +   +   +   +
|-----------------|-----------------|-----------------|-----------------|
|-----0-------3---|-----3-3---------|-----0-------3---|-----------------|
|-0-2---0---0---0-|---2---0---------|-0-2---0---0---0-|-----0-----------|
|---------2-------|-0---------------|---------2-------|---0-------------|
|-----------------|-------3---------|-----------------|-2-----3---------|
|-----------------|-----------------|-----------------|-----------------|

  Em  G/D Cadd9     G     C           Em  G/D Cadd9     D     C11
  +   +   +   +     +   +   +   +     +   +   +   +     +   +   +   +
|-----------------|-----------------|-----------------|-----------------|
|-----0-------3---|-----------------|-----0-------3---|-3-----3---------|
|-0-2---0---0---0-|-----0-----------|-0-2---0---0---0-|-2-----0---------|
|---------2-------|---0-------------|---------2-------|-0-----3---------|
|-----------------|-2-----3---------|-----------------|-------3---------|
|-----------------|-----------------|-----------------|-----------------|
............
Comments