Hootie And The Blowfish - I Go Blind - Intro Chords & Tabs

 

I Go Blind - Intro Chords & Tabs

Hootie And The Blowfish Chords & Tabs

Version: 1 Type: Chords 0 ratings
1 star 2 stars 3 stars 4 stars 5 stars
comments

I Go Blind - Intro Chords

   
##################################################################################
# This file is the author's own work and represents their interpretation of the  #
# song. You may only use this file for private study, scholarship, or research.  #
##################################################################################

* This is my first song that I have figured out on my own, so there is a chance it is wrong.  But, please, let me know if I am.  :)  Thanks!    -toad@ilovejesus.com

Hootie and the Blowfish
"I Go Blind"


Intro:

------------
|- Chords -|
------------
G---320033
C2--032033
Em--022033
A2--002233
C---030210
F---003211
Am--002010
------------


   G     C2    Em    C2    G     C2    Em    A
e------------------------------------------------------
b------------------------------------------------------
g----0-----0-----0-----0-----0-----0-----0-----0-------
d------------------------------------------------------
a------0-3---3-2---3-3---3-----0-3---3-2---0-0---0-----




Have fuN!

-Toad


*************************************************************************************************************************************************************************
[ Tab from: http://www.guitartabs.cc/tabs/h/hootie_and_the_blowfish/i_go_blind_intro_crd.html ]
*************************************************************************************************************************************************************************


I Hope that I Don't Fall in Love with You 
Tom Waits 

Performed by Hootie and the Blowfish

Intro:

CFF/GG(x 2)


I Hope that I Don't Fall in Love with You 
Tom Waits 

Performed by Hootie and the Blowfish

Intro:

CFF/GG(x 2)


C         F      F/G        G   Am       Bm
E---------0----------1--------3---------3---------0---------2------
A---------3----------3--------1---------2---------0---------2-----
D---------2----------3--------3---------0---------2---------4------
G---------0----------2--------2---------0---------2---------4-----
B---------1----------1--------1---------0---------1---------3------
E---------0----------1--------1---------3---------0---------2-----

* This part is not played in this version

sent by: Luis Mangini - Brasil
lemangini01@hotmail.com



******************************************************************************************************************************************************************************

******************************************************************************************************************************************************************************


Comments