Hooters - Johnny B Chords & Tabs

 

Johnny B Chords & Tabs

Hooters Chords & Tabs

Version: 1 Type: Tab 0 ratings
1 star 2 stars 3 stars 4 stars 5 stars
comments

Johnny B Tab

#----------------------------------PLEASE NOTE--------------------------------#
#This file is the author's own work and represents their interpretation of the#
#song. You may only use this file for private study, scholarship, or research.#
#-----------------------------------------------------------------------------#
#-- File created with Instab - http://www.pconline.com/~smcarey/instab.html --#
#-----------------------------------------------------------------------------#

Author/Artist: The Hooters
Title: Johnny B.
Album: The Very Best of The Hooters
Transcribed by: Henri Jaatinen
Email: jatsci_83@hotmail.com

Tabbed from original notes. Should be correct.
[ Tab from: http://www.guitartabs.cc/tabs/h/hooters/johnny_b_tab.html ]
--------------------------------|----------------------|----------------------
-----3-3/5-5-3-------/3---------|----------------------|----------------------
---5-----------5-4-2----5-4-2---|---2-4-5-5-4-2---2^---|----------------------
--------------------------------|---------------5------|----------------------
--------------------------------|----------------------|----------------------
--------------------------------|----------------------|----------------------
 Guitar Intro...                                                              

-------------------------------------|-------------------------|--------------
------8-8/10-10-8--------/8----------|-------------------------|--------------
---10-------------10-9-7----10-9-7---|---7-9-10-10-9-7----7^---|--------------
-------------------------------------|-----------------10------|--------------
-------------------------------------|-------------------------|--------------
-------------------------------------|-------------------------|--------------
                                                                              

Comments