Hoobastank - Why Are You Running Away Chords & Tabs

 

Why Are You Running Away Chords & Tabs

Hoobastank Chords & Tabs

Version: 1 Type: Tab 0 ratings
1 star 2 stars 3 stars 4 stars 5 stars
comments

Why Are You Running Away Tab


----------------------------------------------------------------                ------------------------------------------
--------1--------------------------------------------------------              ------0------------------------------------
--------2--------------------------------------------------------              ------2------------------------------------
--------2--------------------------------------------------------              ------2------------------------------------
----------------------------------------------------------------                -------------------------------------------                  
----------------------------------------------------------------                -------------------------------------------
repeat 3x           section 1                                                               1x right after u repeat section 1.





----------------------------------------------------                             --------------------------------------------------
-----------------------------------------------------                             ------1--------------------------------------------
---------4------------------------------------------                         ------2-------------------------------------------- 
---------5-------------------------------------------                           ------3---------------------------------------------
---------5-------------------------------------------                           ---------------------------------------------------
-----------------------------------------------------                             ---------------------------------------------------
6x   section 2                                                                               3x after section 2


------------------------------------------------------
------1---------------------------0------------------
------2---------------------------2------------------
------------------------------------------------------
------------------------------------------------------
------------------------------------------------------
repeat 3x                             repeat 1x right after 

                  END OF INTRO...
____________________________________________________________________

                                                                            Bridge
----------------------------------------------------------------               
--------1--------------------------------------------------------              
--------2--------------------------------------------------------             
--------2--------------------------------------------------------             
----------------------------------------------------------------               
----------------------------------------------------------------                
repeat 3x           section 1                                                               1x right after u repeat section 1.

----------------------------------------------------                          ----------------------------------------------
 --------------------------------------------------                            ---------1-----------------------------------                                                                                                     
---------4------------------------------------------                          ---------2-----------------------------------                
---------5-------------------------------------------                        ----------3-----------------------------------                                                            ---------5-------------------------------------------                        -----------------------------------------------
-----------------------------------------------------                         -------------------------------------------------
6x   section 2                                                                               3x after section 2


Add distortion to this above
_________________________________________________________________________________

                         Chorus
[ Tab from: http://www.guitartabs.cc/tabs/h/hoobastank/why_are_you_running_away_tab.html ]
---------------------------------------------------------------------------------------------------------
---------------------------------------------------------------------------------------------------------
---------------------------------------------------------------------------------------------------------
-------------------------------------------------------------------------5--------------------------------
--------7---------------9------------10---------- 12-------3----------3--------5------------------------
--------5---------------7------------ 8----------- 10-------1-------------------3-----------------------
          6x                  6x                6x              6x          8x            6x        6x

-----------------------------------------------------------------------------------------------------------
-------------------------------------------------------------------------------------------------------------
-------------------------------------------------------------------------------------------------------------
-----------------------9-------------------------------------------------------5-----------------------------
---------5-------------7-----------10---------------12------------1---------3-------------5----------------
---------7-------------7------------8---------------10-------------3-----------------------3-----------
           6x                6x              6x                  6x                  8x          6x                6x


non distorted melodic sounding part.

------------------------0-----------------------
-----------1------0----------0----1--------------
----2-----------------------------------2-----
-----------------------------------------------
-------------------------------------------------
-------------------------------------------------
repeat a bunch of times hehhe..

ok then u just go through the bridge again, then the chorus.. but then .. heres the non-distorted melodic part change.. here ya go.

------------------------0-----------------------                                        -----------------0--------------------------
-----------1------0----------0----1--------------                                     -------------0-----0------------------------
----2-----------------------------------2-----                                          --------0--------------0-------------------- 
-----------------------------------------------                                           ---2------------------------------------------ 
-------------------------------------------------                                       -------------------------------------------------
-------------------------------------------------                                          ---------------------------------------------



then the next change it sounds almost like the chorus..

this whole thing right here should go back and forth a couple times
-----------------------------------------------------------------------                 ----------------------------------------------------
-----------------------------------------------------------------------                 ----------------------------------------------------
------------------------------------------------------------------------                ---------------------------------------------------
----------------------------------------------------------------------                   --9------7-----9------------------------------------
----7--------5---------5-----------------------------------------                       ---7------7-----7------------------------------------
----5--------5---------7----------------------------------------------                 ---7------7-----7------------------------------------
     3x         1x          3x                                                                                 3x       1x     3x


-----------------------------------------------------------------
-----------------------------------------------------------------
------------------------------------------------------------------
---10-----------9------------------------------------------------
---8-------------7-----------------------------------------------
---8-------------7-----------------------------------------------
   6x                6x

then you just play teh chorus and it fades.. adn the songs over


hi, this is dan pomerico this is my first transcription.. so if u have any questions e-mail me at yngwiem4lmsteen@hotmail.com
Comments